  0
SECTION
  2
HEADER
  9
$ACADVER
  1
AC1027
  9
$ACADMAINTVER
 70
    83
  9
$DWGCODEPAGE
  3
ANSI_1252
  9
$LASTSAVEDBY
  1
chadclouser
  9
$REQUIREDVERSIONS
160
                 0
  9
$INSBASE
 10
0.0
 20
0.0
 30
0.0
  9
$EXTMIN
 10
-52.35512346293937
 20
-51.82864723342623
 30
0.0
  9
$EXTMAX
 10
2.353259307764982
 20
-27.29112660724512
 30
0.0
  9
$LIMMIN
 10
0.0
 20
0.0
  9
$LIMMAX
 10
12.0
 20
9.0
  9
$ORTHOMODE
 70
     1
  9
$REGENMODE
 70
     1
  9
$FILLMODE
 70
     1
  9
$QTEXTMODE
 70
     0
  9
$MIRRTEXT
 70
     0
  9
$LTSCALE
 40
1.0
  9
$ATTMODE
 70
     1
  9
$TEXTSIZE
 40
12.10402048440558
  9
$TRACEWID
 40
0.05
  9
$TEXTSTYLE
  7
Standard
  9
$CLAYER
  8
0
  9
$CELTYPE
  6
ByLayer
  9
$CECOLOR
 62
   256
  9
$CELTSCALE
 40
1.0
  9
$DISPSILH
 70
     0
  9
$DIMSCALE
 40
1.0
  9
$DIMASZ
 40
1.0
  9
$DIMEXO
 40
0.05
  9
$DIMDLI
 40
0.505
  9
$DIMRND
 40
0.0
  9
$DIMDLE
 40
0.675
  9
$DIMEXE
 40
0.675
  9
$DIMTP
 40
0.0
  9
$DIMTM
 40
0.0
  9
$DIMTXT
 40
1.0
  9
$DIMCEN
 40
0.09
  9
$DIMTSZ
 40
0.0
  9
$DIMTOL
 70
     0
  9
$DIMLIM
 70
     0
  9
$DIMTIH
 70
     0
  9
$DIMTOH
 70
     0
  9
$DIMSE1
 70
     0
  9
$DIMSE2
 70
     0
  9
$DIMTAD
 70
     0
  9
$DIMZIN
 70
     3
  9
$DIMBLK
  1
ARCHTICK
  9
$DIMASO
 70
     1
  9
$DIMSHO
 70
     1
  9
$DIMPOST
  1

  9
$DIMAPOST
  1

  9
$DIMALT
 70
     0
  9
$DIMALTD
 70
     2
  9
$DIMALTF
 40
25.4
  9
$DIMLFAC
 40
0.9999999999999998
  9
$DIMTOFL
 70
     1
  9
$DIMTVP
 40
0.0
  9
$DIMTIX
 70
     0
  9
$DIMSOXD
 70
     0
  9
$DIMSAH
 70
     0
  9
$DIMBLK1
  1

  9
$DIMBLK2
  1

  9
$DIMSTYLE
  2
HUNTER-1.5INCH
  9
$DIMCLRD
 70
   256
  9
$DIMCLRE
 70
   256
  9
$DIMCLRT
 70
   256
  9
$DIMTFAC
 40
1.0
  9
$DIMGAP
 40
0.04
  9
$DIMJUST
 70
     0
  9
$DIMSD1
 70
     0
  9
$DIMSD2
 70
     0
  9
$DIMTOLJ
 70
     1
  9
$DIMTZIN
 70
     0
  9
$DIMALTZ
 70
     0
  9
$DIMALTTZ
 70
     0
  9
$DIMUPT
 70
     0
  9
$DIMDEC
 70
     0
  9
$DIMTDEC
 70
     0
  9
$DIMALTU
 70
     2
  9
$DIMALTTD
 70
     2
  9
$DIMTXSTY
  7
Hunter
  9
$DIMAUNIT
 70
     0
  9
$DIMADEC
 70
     0
  9
$DIMALTRND
 40
0.0
  9
$DIMAZIN
 70
     0
  9
$DIMDSEP
 70
    46
  9
$DIMATFIT
 70
     1
  9
$DIMFRAC
 70
     0
  9
$DIMLDRBLK
  1
Open90
  9
$DIMLUNIT
 70
     4
  9
$DIMLWD
 70
    -1
  9
$DIMLWE
 70
    -2
  9
$DIMTMOVE
 70
     2
  9
$DIMFXL
 40
1.0
  9
$DIMFXLON
 70
     0
  9
$DIMJOGANG
 40
0.7853981633974483
  9
$DIMTFILL
 70
     0
  9
$DIMTFILLCLR
 70
     0
  9
$DIMARCSYM
 70
     0
  9
$DIMLTYPE
  6

  9
$DIMLTEX1
  6

  9
$DIMLTEX2
  6

  9
$DIMTXTDIRECTION
 70
     0
  9
$LUNITS
 70
     4
  9
$LUPREC
 70
     4
  9
$SKETCHINC
 40
0.1
  9
$FILLETRAD
 40
0.0
  9
$AUNITS
 70
     0
  9
$AUPREC
 70
     2
  9
$MENU
  1
.
  9
$ELEVATION
 40
0.0
  9
$PELEVATION
 40
0.0
  9
$THICKNESS
 40
0.0
  9
$LIMCHECK
 70
     0
  9
$CHAMFERA
 40
0.0
  9
$CHAMFERB
 40
0.0
  9
$CHAMFERC
 40
0.0
  9
$CHAMFERD
 40
0.0
  9
$SKPOLY
 70
     0
  9
$TDCREATE
 40
2454770.393585949
  9
$TDUCREATE
 40
2454770.601919282
  9
$TDUPDATE
 40
2458066.620379699
  9
$TDUUPDATE
 40
2458066.828713032
  9
$TDINDWG
 40
95.8093243171
  9
$TDUSRTIMER
 40
95.8093241435
  9
$USRTIMER
 70
     1
  9
$ANGBASE
 50
0.0
  9
$ANGDIR
 70
     0
  9
$PDMODE
 70
     0
  9
$PDSIZE
 40
0.0
  9
$PLINEWID
 40
0.0
  9
$SPLFRAME
 70
     0
  9
$SPLINETYPE
 70
     6
  9
$SPLINESEGS
 70
     8
  9
$HANDSEED
  5
AC75E
  9
$SURFTAB1
 70
     6
  9
$SURFTAB2
 70
     6
  9
$SURFTYPE
 70
     6
  9
$SURFU
 70
     6
  9
$SURFV
 70
     6
  9
$UCSBASE
  2

  9
$UCSNAME
  2

  9
$UCSORG
 10
0.0
 20
0.0
 30
0.0
  9
$UCSXDIR
 10
1.0
 20
0.0
 30
0.0
  9
$UCSYDIR
 10
0.0
 20
1.0
 30
0.0
  9
$UCSORTHOREF
  2

  9
$UCSORTHOVIEW
 70
     0
  9
$UCSORGTOP
 10
0.0
 20
0.0
 30
0.0
  9
$UCSORGBOTTOM
 10
0.0
 20
0.0
 30
0.0
  9
$UCSORGLEFT
 10
0.0
 20
0.0
 30
0.0
  9
$UCSORGRIGHT
 10
0.0
 20
0.0
 30
0.0
  9
$UCSORGFRONT
 10
0.0
 20
0.0
 30
0.0
  9
$UCSORGBACK
 10
0.0
 20
0.0
 30
0.0
  9
$PUCSBASE
  2

  9
$PUCSNAME
  2

  9
$PUCSORG
 10
0.0
 20
0.0
 30
0.0
  9
$PUCSXDIR
 10
1.0
 20
0.0
 30
0.0
  9
$PUCSYDIR
 10
0.0
 20
1.0
 30
0.0
  9
$PUCSORTHOREF
  2

  9
$PUCSORTHOVIEW
 70
     0
  9
$PUCSORGTOP
 10
0.0
 20
0.0
 30
0.0
  9
$PUCSORGBOTTOM
 10
0.0
 20
0.0
 30
0.0
  9
$PUCSORGLEFT
 10
0.0
 20
0.0
 30
0.0
  9
$PUCSORGRIGHT
 10
0.0
 20
0.0
 30
0.0
  9
$PUCSORGFRONT
 10
0.0
 20
0.0
 30
0.0
  9
$PUCSORGBACK
 10
0.0
 20
0.0
 30
0.0
  9
$USERI1
 70
     0
  9
$USERI2
 70
     0
  9
$USERI3
 70
     0
  9
$USERI4
 70
     0
  9
$USERI5
 70
     0
  9
$USERR1
 40
0.0
  9
$USERR2
 40
0.0
  9
$USERR3
 40
0.0
  9
$USERR4
 40
0.0
  9
$USERR5
 40
12.07090419886942
  9
$WORLDVIEW
 70
     1
  9
$SHADEDGE
 70
     3
  9
$SHADEDIF
 70
    70
  9
$TILEMODE
 70
     1
  9
$MAXACTVP
 70
    64
  9
$PINSBASE
 10
0.0
 20
0.0
 30
0.0
  9
$PLIMCHECK
 70
     0
  9
$PEXTMIN
 10
0.0145643619954186
 20
0.0132348038147043
 30
-0.0015258207003583
  9
$PEXTMAX
 10
10.27458914444549
 20
7.796388667592996
 30
0.0000000349246037
  9
$PLIMMIN
 10
-0.7005418191744587
 20
-0.2281003861915408
  9
$PLIMMAX
 10
10.99237156665231
 20
8.039616149241531
  9
$UNITMODE
 70
     0
  9
$VISRETAIN
 70
     1
  9
$PLINEGEN
 70
     0
  9
$PSLTSCALE
 70
     1
  9
$TREEDEPTH
 70
  3020
  9
$CMLSTYLE
  2
Standard
  9
$CMLJUST
 70
     1
  9
$CMLSCALE
 40
8.0
  9
$PROXYGRAPHICS
 70
     1
  9
$MEASUREMENT
 70
     0
  9
$CELWEIGHT
370
    -1
  9
$ENDCAPS
280
     0
  9
$JOINSTYLE
280
     0
  9
$LWDISPLAY
290
     0
  9
$INSUNITS
 70
     1
  9
$HYPERLINKBASE
  1

  9
$STYLESHEET
  1
Standard Pen Settings.ctb
  9
$XEDIT
290
     1
  9
$CEPSNTYPE
380
     0
  9
$PSTYLEMODE
290
     1
  9
$FINGERPRINTGUID
  2
{042633EE-7B2A-4DA3-9B1E-3D8485D08136}
  9
$VERSIONGUID
  2
{E85408AE-4948-48A4-B13B-903DB04E02AE}
  9
$EXTNAMES
290
     1
  9
$PSVPSCALE
 40
0.0
  9
$OLESTARTUP
290
     0
  9
$SORTENTS
280
   127
  9
$INDEXCTL
280
     0
  9
$HIDETEXT
280
     1
  9
$XCLIPFRAME
280
     0
  9
$HALOGAP
280
     0
  9
$OBSCOLOR
 70
   257
  9
$OBSLTYPE
280
     0
  9
$INTERSECTIONDISPLAY
280
     0
  9
$INTERSECTIONCOLOR
 70
   257
  9
$DIMASSOC
280
     2
  9
$PROJECTNAME
  1

  9
$CAMERADISPLAY
290
     0
  9
$LENSLENGTH
 40
50.0
  9
$CAMERAHEIGHT
 40
0.0
  9
$STEPSPERSEC
 40
2.0
  9
$STEPSIZE
 40
6.0
  9
$3DDWFPREC
 40
2.0
  9
$PSOLWIDTH
 40
0.25
  9
$PSOLHEIGHT
 40
4.0
  9
$LOFTANG1
 40
1.570796326794896
  9
$LOFTANG2
 40
1.570796326794896
  9
$LOFTMAG1
 40
0.0
  9
$LOFTMAG2
 40
0.0
  9
$LOFTPARAM
 70
     7
  9
$LOFTNORMALS
280
     1
  9
$LATITUDE
 40
37.795
  9
$LONGITUDE
 40
-122.394
  9
$NORTHDIRECTION
 40
0.0
  9
$TIMEZONE
 70
 -8000
  9
$LIGHTGLYPHDISPLAY
280
     1
  9
$TILEMODELIGHTSYNCH
280
     1
  9
$CMATERIAL
347
96
  9
$SOLIDHIST
280
     1
  9
$SHOWHIST
280
     1
  9
$DWFFRAME
280
     2
  9
$DGNFRAME
280
     0
  9
$REALWORLDSCALE
290
     1
  9
$INTERFERECOLOR
 62
     1
  9
$INTERFEREOBJVS
345
A3
  9
$INTERFEREVPVS
346
A0
  9
$CSHADOW
280
     0
  9
$SHADOWPLANELOCATION
 40
0.0
  0
ENDSEC
  0
SECTION
  2
CLASSES
  0
CLASS
  1
ACDBDICTIONARYWDFLT
  2
AcDbDictionaryWithDefault
  3
ObjectDBX Classes
 90
        0
 91
        1
280
     0
281
     0
  0
CLASS
  1
ACDBPLACEHOLDER
  2
AcDbPlaceHolder
  3
ObjectDBX Classes
 90
        0
 91
        1
280
     0
281
     0
  0
CLASS
  1
LAYOUT
  2
AcDbLayout
  3
ObjectDBX Classes
 90
        0
 91
        3
280
     0
281
     0
  0
CLASS
  1
DICTIONARYVAR
  2
AcDbDictionaryVar
  3
ObjectDBX Classes
 90
        0
 91
       13
280
     0
281
     0
  0
CLASS
  1
TABLESTYLE
  2
AcDbTableStyle
  3
ObjectDBX Classes
 90
     4095
 91
        1
280
     0
281
     0
  0
CLASS
  1
MATERIAL
  2
AcDbMaterial
  3
ObjectDBX Classes
 90
     1153
 91
        3
280
     0
281
     0
  0
CLASS
  1
VISUALSTYLE
  2
AcDbVisualStyle
  3
ObjectDBX Classes
 90
     4095
 91
       26
280
     0
281
     0
  0
CLASS
  1
EXACXREFPANELOBJECT
  2
ExAcXREFPanelObject
  3
EXAC_ESW
 90
     1025
 91
        0
280
     0
281
     0
  0
CLASS
  1
NPOCOLLECTION
  2
AcDbImpNonPersistentObjectsCollection
  3
ObjectDBX Classes
 90
     1153
 91
        0
280
     0
281
     0
  0
CLASS
  1
PLOTSETTINGS
  2
AcDbPlotSettings
  3
ObjectDBX Classes
 90
        0
 91
        6
280
     0
281
     0
  0
CLASS
  1
SORTENTSTABLE
  2
AcDbSortentsTable
  3
ObjectDBX Classes
 90
        0
 91
        1
280
     0
281
     0
  0
CLASS
  1
ACAD_EVALUATION_GRAPH
  2
AcDbEvalGraph
  3
ObjectDBX Classes
 90
     1153
 91
        0
280
     0
281
     0
  0
CLASS
  1
ACAECUSTOBJ
  2
AcAeEditorObj
  3
AcAeEditorObj
 90
     1024
 91
        0
280
     0
281
     0
  0
CLASS
  1
ACDB_DYNAMICBLOCKPURGEPREVENTER_VERSION
  2
AcDbDynamicBlockPurgePreventer
  3
ObjectDBX Classes
 90
     1153
 91
        0
280
     0
281
     0
  0
CLASS
  1
BLOCKVISIBILITYPARAMETER
  2
AcDbBlockVisibilityParameter
  3
ObjectDBX Classes
 90
     1153
 91
        0
280
     0
281
     0
  0
CLASS
  1
BLOCKVISIBILITYGRIP
  2
AcDbBlockVisibilityGrip
  3
ObjectDBX Classes
 90
     1153
 91
        0
280
     0
281
     0
  0
CLASS
  1
BLOCKGRIPLOCATIONCOMPONENT
  2
AcDbBlockGripExpr
  3
ObjectDBX Classes
 90
     1153
 91
        0
280
     0
281
     0
  0
CLASS
  1
ACDB_BLOCKREPRESENTATION_DATA
  2
AcDbBlockRepresentationData
  3
ObjectDBX Classes
 90
     1153
 91
        0
280
     0
281
     0
  0
CLASS
  1
BLOCKROTATIONPARAMETER
  2
AcDbBlockRotationParameter
  3
ObjectDBX Classes
 90
     1153
 91
        0
280
     0
281
     0
  0
CLASS
  1
BLOCKROTATIONGRIP
  2
AcDbBlockRotationGrip
  3
ObjectDBX Classes
 90
     1153
 91
        0
280
     0
281
     0
  0
CLASS
  1
BLOCKROTATEACTION
  2
AcDbBlockRotateAction
  3
ObjectDBX Classes
 90
     1153
 91
        0
280
     0
281
     0
  0
CLASS
  1
EXACTERMXREFMAP
  2
ExAcTermXrefMap
  3
EXAC_SERVICE
 90
     1025
 91
        0
280
     0
281
     0
  0
CLASS
  1
RASTERVARIABLES
  2
AcDbRasterVariables
  3
ISM
 90
        0
 91
        1
280
     0
281
     0
  0
CLASS
  1
SCALE
  2
AcDbScale
  3
ObjectDBX Classes
 90
     1153
 91
       37
280
     0
281
     0
  0
CLASS
  1
MLEADERSTYLE
  2
AcDbMLeaderStyle
  3
ACDB_MLEADERSTYLE_CLASS
 90
     4095
 91
        1
280
     0
281
     0
  0
CLASS
  1
CELLSTYLEMAP
  2
AcDbCellStyleMap
  3
ObjectDBX Classes
 90
     1152
 91
        1
280
     0
281
     0
  0
CLASS
  1
BLOCKLINEARPARAMETER
  2
AcDbBlockLinearParameter
  3
ObjectDBX Classes
 90
     1153
 91
        0
280
     0
281
     0
  0
CLASS
  1
BLOCKLINEARGRIP
  2
AcDbBlockLinearGrip
  3
ObjectDBX Classes
 90
     1153
 91
        0
280
     0
281
     0
  0
CLASS
  1
BLOCKSCALEACTION
  2
AcDbBlockScaleAction
  3
ObjectDBX Classes
 90
     1153
 91
        0
280
     0
281
     0
  0
CLASS
  1
WIPEOUT
  2
AcDbWipeout
  3
WipeOut|Product Desc: Object Enabler for WipeOut entity | Company: Autodesk, Inc. | WEB Address: www.autodesk.com
 90
     2175
 91
        0
280
     0
281
     1
  0
CLASS
  1
WIPEOUTVARIABLES
  2
AcDbWipeoutVariables
  3
"WipeOut|Product Desc:     WipeOut Dbx Application|Company:          Autodesk, Inc.|WEB Address:      www.autodesk.com"
 90
        0
 91
        1
280
     0
281
     0
  0
CLASS
  1
DIMASSOC
  2
AcDbDimAssoc
  3
"AcDbDimAssoc|Product Desc:     AcDim ARX App For Dimension|Company:          Autodesk, Inc.|WEB Address:      www.autodesk.com"
 90
        0
 91
        0
280
     0
281
     0
  0
CLASS
  1
AEC_REFEDIT_STATUS_TRACKER
  2
AecDbRefEditStatusTracker
  3
AecArchBase70|Product Desc: Autodesk Architectural Desktop 2007 |Company: Autodesk,Inc. |WEB Address: www.autodesk.com
 90
      129
 91
        0
280
     0
281
     0
  0
CLASS
  1
BLOCKPOLARPARAMETER
  2
AcDbBlockPolarParameter
  3
ObjectDBX Classes
 90
     1153
 91
        0
280
     0
281
     0
  0
CLASS
  1
BLOCKPOLARGRIP
  2
AcDbBlockPolarGrip
  3
ObjectDBX Classes
 90
     1153
 91
        0
280
     0
281
     0
  0
CLASS
  1
BLOCKSTRETCHACTION
  2
AcDbBlockStretchAction
  3
ObjectDBX Classes
 90
     1153
 91
        0
280
     0
281
     0
  0
CLASS
  1
BLOCKFLIPPARAMETER
  2
AcDbBlockFlipParameter
  3
ObjectDBX Classes
 90
     1153
 91
        0
280
     0
281
     0
  0
CLASS
  1
BLOCKFLIPGRIP
  2
AcDbBlockFlipGrip
  3
ObjectDBX Classes
 90
     1153
 91
        0
280
     0
281
     0
  0
CLASS
  1
BLOCKFLIPACTION
  2
AcDbBlockFlipAction
  3
ObjectDBX Classes
 90
     1153
 91
        0
280
     0
281
     0
  0
CLASS
  1
AEC_NOTIFICATION_TRACKER
  2
AecDbNotificationTracker
  3
AecBase70|Product Desc: Autodesk Architectural Desktop 2007 |Company: Autodesk,Inc. |WEB Address: www.autodesk.com
 90
      129
 91
        0
280
     0
281
     0
  0
CLASS
  1
ACDBSECTIONVIEWSTYLE
  2
AcDbSectionViewStyle
  3
ObjectDBX Classes
 90
     1025
 91
        1
280
     0
281
     0
  0
CLASS
  1
ACDBDETAILVIEWSTYLE
  2
AcDbDetailViewStyle
  3
ObjectDBX Classes
 90
     1025
 91
        1
280
     0
281
     0
  0
CLASS
  1
AEC_DISP_REP_ANCHOR_TAG_TO_ENT
  2
AecDbDispRepAnchorTagToEnt
  3
AecBase70|Product Desc: Autodesk Architectural Desktop 2007 |Company: Autodesk,Inc. |WEB Address: www.autodesk.com
 90
      129
 91
        1
280
     0
281
     0
  0
CLASS
  1
AEC_DISP_PROPS_ENT
  2
AecDbDispPropsEnt
  3
AecBase70|Product Desc: Autodesk Architectural Desktop 2007 |Company: Autodesk,Inc. |WEB Address: www.autodesk.com
 90
      129
 91
        7
280
     0
281
     0
  0
CLASS
  1
AEC_DISP_REP_2D_SECTION
  2
AecDbDispRep2dSection
  3
AecBase70|Product Desc: Autodesk Architectural Desktop 2007 |Company: Autodesk,Inc. |WEB Address: www.autodesk.com
 90
      129
 91
        1
280
     0
281
     0
  0
CLASS
  1
AEC_VARS_DWG_SETUP
  2
AecDbVarsDwgSetup
  3
AecBase70|Product Desc: Autodesk Architectural Desktop 2007 |Company: Autodesk,Inc. |WEB Address: www.autodesk.com
 90
      129
 91
        1
280
     0
281
     0
  0
CLASS
  1
AEC_DISP_PROPS_2D_SECTION
  2
AecDbDispProps2dSection
  3
AecBase70|Product Desc: Autodesk Architectural Desktop 2007 |Company: Autodesk,Inc. |WEB Address: www.autodesk.com
 90
      129
 91
        1
280
     0
281
     0
  0
CLASS
  1
AEC_DISP_REP_ANCHOR
  2
AecDbDispRepAnchor
  3
AecBase70|Product Desc: Autodesk Architectural Desktop 2007 |Company: Autodesk,Inc. |WEB Address: www.autodesk.com
 90
      129
 91
        1
280
     0
281
     0
  0
CLASS
  1
AEC_DISP_REP_ANCHOR_ENT_TO_NODE
  2
AecDbDispRepAnchorEntToNode
  3
AecBase70|Product Desc: Autodesk Architectural Desktop 2007 |Company: Autodesk,Inc. |WEB Address: www.autodesk.com
 90
      129
 91
        1
280
     0
281
     0
  0
CLASS
  1
AEC_DISP_REP_ANCHOR_EXT_TAG_TO_ENT
  2
AecDbDispRepAnchorExtendedTagToEnt
  3
AecBase70|Product Desc: Autodesk Architectural Desktop 2007 |Company: Autodesk,Inc. |WEB Address: www.autodesk.com
 90
      129
 91
        1
280
     0
281
     0
  0
CLASS
  1
AEC_DISP_REP_CLIP_VOLUME_MODEL
  2
AecDbDispRepClipVolModel
  3
AecBase70|Product Desc: Autodesk Architectural Desktop 2007 |Company: Autodesk,Inc. |WEB Address: www.autodesk.com
 90
      129
 91
        1
280
     0
281
     0
  0
CLASS
  1
AEC_DISP_PROPS_CLIP_VOLUME
  2
AecDbDispPropsClipVol
  3
AecBase70|Product Desc: Autodesk Architectural Desktop 2007 |Company: Autodesk,Inc. |WEB Address: www.autodesk.com
 90
      129
 91
       12
280
     0
281
     0
  0
CLASS
  1
AEC_DISP_REP_LAYOUT_GRID2D
  2
AecDbDispRepLayoutGrid2d
  3
AecBase70|Product Desc: Autodesk Architectural Desktop 2007 |Company: Autodesk,Inc. |WEB Address: www.autodesk.com
 90
      129
 91
        1
280
     0
281
     0
  0
CLASS
  1
AEC_DISP_PROPS_LAYOUT_GRID2D
  2
AecDbDispPropsLayoutGrid2d
  3
AecBase70|Product Desc: Autodesk Architectural Desktop 2007 |Company: Autodesk,Inc. |WEB Address: www.autodesk.com
 90
      129
 91
       11
280
     0
281
     0
  0
CLASS
  1
AEC_DISP_REP_EDITINPLACEPROFILE
  2
AecDbDispRepEditInPlaceProfile
  3
AecBase70|Product Desc: Autodesk Architectural Desktop 2007 |Company: Autodesk,Inc. |WEB Address: www.autodesk.com
 90
      129
 91
        1
280
     0
281
     0
  0
CLASS
  1
AEC_DISP_PROPS_EDITINPLACEPROFILE_MODEL
  2
AecDbDispPropsEditInPlaceProfile
  3
AecBase70|Product Desc: Autodesk Architectural Desktop 2007 |Company: Autodesk,Inc. |WEB Address: www.autodesk.com
 90
      129
 91
        1
280
     0
281
     0
  0
CLASS
  1
AEC_DISP_REP_CLIP_VOLUME_PLAN
  2
AecDbDispRepClipVolPlan
  3
AecBase70|Product Desc: Autodesk Architectural Desktop 2007 |Company: Autodesk,Inc. |WEB Address: www.autodesk.com
 90
      129
 91
        1
280
     0
281
     0
  0
CLASS
  1
AEC_DISP_REP_ENT_REF
  2
AecDbDispRepEntRef
  3
AecBase70|Product Desc: Autodesk Architectural Desktop 2007 |Company: Autodesk,Inc. |WEB Address: www.autodesk.com
 90
      129
 91
        1
280
     0
281
     0
  0
CLASS
  1
AEC_DISP_PROPS_ENT_REF
  2
AecDbDispPropsEntRef
  3
AecBase70|Product Desc: Autodesk Architectural Desktop 2007 |Company: Autodesk,Inc. |WEB Address: www.autodesk.com
 90
      129
 91
        1
280
     0
281
     0
  0
CLASS
  1
AEC_DISP_REP_LAYOUT_CURVE
  2
AecDbDispRepLayoutCurve
  3
AecBase70|Product Desc: Autodesk Architectural Desktop 2007 |Company: Autodesk,Inc. |WEB Address: www.autodesk.com
 90
      129
 91
        1
280
     0
281
     0
  0
CLASS
  1
AEC_DISP_PROPS_LAYOUT_CURVE
  2
AecDbDispPropsLayoutCurve
  3
AecBase70|Product Desc: Autodesk Architectural Desktop 2007 |Company: Autodesk,Inc. |WEB Address: www.autodesk.com
 90
      129
 91
        1
280
     0
281
     0
  0
CLASS
  1
AEC_DISP_REP_CLIP_VOLUME_RESULT_SUBDIV
  2
AecDbDispRepClipVolResSubDiv
  3
AecBase70|Product Desc: Autodesk Architectural Desktop 2007 |Company: Autodesk,Inc. |WEB Address: www.autodesk.com
 90
      129
 91
        1
280
     0
281
     0
  0
CLASS
  1
AEC_DISP_PROPS_CLIP_VOLUME_RESULT
  2
AecDbDispPropsClipVolResSubDiv
  3
AecBase70|Product Desc: Autodesk Architectural Desktop 2007 |Company: Autodesk,Inc. |WEB Address: www.autodesk.com
 90
      129
 91
        2
280
     0
281
     0
  0
CLASS
  1
AEC_DISP_REP_LAYOUT_GRID3D
  2
AecDbDispRepLayoutGrid3d
  3
AecBase70|Product Desc: Autodesk Architectural Desktop 2007 |Company: Autodesk,Inc. |WEB Address: www.autodesk.com
 90
      129
 91
        1
280
     0
281
     0
  0
CLASS
  1
AEC_DISP_PROPS_LAYOUT_GRID3D
  2
AecDbDispPropsLayoutGrid3d
  3
AecBase70|Product Desc: Autodesk Architectural Desktop 2007 |Company: Autodesk,Inc. |WEB Address: www.autodesk.com
 90
      129
 91
        1
280
     0
281
     0
  0
CLASS
  1
AEC_DISP_REP_MVBLOCK_REF_MODEL
  2
AecDbDispRepMvBlockRefModel
  3
AecBase70|Product Desc: Autodesk Architectural Desktop 2007 |Company: Autodesk,Inc. |WEB Address: www.autodesk.com
 90
      129
 91
        1
280
     0
281
     0
  0
CLASS
  1
AEC_DISP_REP_MASKBLOCK_REF
  2
AecDbDispRepMaskBlockRef
  3
AecBase70|Product Desc: Autodesk Architectural Desktop 2007 |Company: Autodesk,Inc. |WEB Address: www.autodesk.com
 90
      129
 91
        1
280
     0
281
     0
  0
CLASS
  1
AEC_DISP_PROPS_MASKBLOCK
  2
AecDbDispPropsMaskBlock
  3
AecBase70|Product Desc: Autodesk Architectural Desktop 2007 |Company: Autodesk,Inc. |WEB Address: www.autodesk.com
 90
      129
 91
        2
280
     0
281
     0
  0
CLASS
  1
AEC_DISP_REP_CLIP_VOLUME_RESULT
  2
AecDbDispRepClipVolResult
  3
AecBase70|Product Desc: Autodesk Architectural Desktop 2007 |Company: Autodesk,Inc. |WEB Address: www.autodesk.com
 90
      129
 91
        1
280
     0
281
     0
  0
CLASS
  1
AEC_DISP_REP_MVBLOCK_REF
  2
AecDbDispRepMvBlockRef
  3
AecBase70|Product Desc: Autodesk Architectural Desktop 2007 |Company: Autodesk,Inc. |WEB Address: www.autodesk.com
 90
      129
 91
        2
280
     0
281
     0
  0
CLASS
  1
AEC_DISP_REP_POLYGON_MODEL
  2
AecDbDispRepPolygonModel
  3
AecBase70|Product Desc: Autodesk Architectural Desktop 2007 |Company: Autodesk,Inc. |WEB Address: www.autodesk.com
 90
      129
 91
        1
280
     0
281
     0
  0
CLASS
  1
AEC_DISP_PROPS_POLYGON_MODEL
  2
AecDbDispPropsPolygonModel
  3
AecBase70|Product Desc: Autodesk Architectural Desktop 2007 |Company: Autodesk,Inc. |WEB Address: www.autodesk.com
 90
      129
 91
        1
280
     0
281
     0
  0
CLASS
  1
AEC_DISP_REP_POLYGON_TRUECOLOUR
  2
AecDbDispRepPolygonTrueColour
  3
AecBase70|Product Desc: Autodesk Architectural Desktop 2007 |Company: Autodesk,Inc. |WEB Address: www.autodesk.com
 90
      129
 91
        1
280
     0
281
     0
  0
CLASS
  1
AEC_DISP_PROPS_POLYGON_TRUECOLOUR
  2
AecDbDispPropsPolygonTrueColour
  3
AecBase70|Product Desc: Autodesk Architectural Desktop 2007 |Company: Autodesk,Inc. |WEB Address: www.autodesk.com
 90
      129
 91
        1
280
     0
281
     0
  0
CLASS
  1
AEC_DISP_REP_MATERIAL
  2
AecDbDispRepMaterial
  3
AecBase70|Product Desc: Autodesk Architectural Desktop 2007 |Company: Autodesk,Inc. |WEB Address: www.autodesk.com
 90
      129
 91
        2
280
     0
281
     0
  0
CLASS
  1
AEC_DISP_PROPS_MATERIAL
  2
AecDbDispPropsMaterial
  3
AecBase70|Product Desc: Autodesk Architectural Desktop 2007 |Company: Autodesk,Inc. |WEB Address: www.autodesk.com
 90
      129
 91
        2
280
     0
281
     0
  0
CLASS
  1
AEC_DISP_REP_DISPLAYTHEME
  2
AecDbDispRepDisplayTheme
  3
AecBase70|Product Desc: Autodesk Architectural Desktop 2007 |Company: Autodesk,Inc. |WEB Address: www.autodesk.com
 90
      129
 91
        1
280
     0
281
     0
  0
CLASS
  1
AEC_DISP_PROPS_DISPLAYTHEME
  2
AecDbDispPropsDisplayTheme
  3
AecBase70|Product Desc: Autodesk Architectural Desktop 2007 |Company: Autodesk,Inc. |WEB Address: www.autodesk.com
 90
      129
 91
        1
280
     0
281
     0
  0
CLASS
  1
AEC_DISP_REP_SLICE
  2
AecDbDispRepSlice
  3
AecBase70|Product Desc: Autodesk Architectural Desktop 2007 |Company: Autodesk,Inc. |WEB Address: www.autodesk.com
 90
      129
 91
        1
280
     0
281
     0
  0
CLASS
  1
AEC_DISP_PROPS_SLICE
  2
AecDbDispPropsSlice
  3
AecBase70|Product Desc: Autodesk Architectural Desktop 2007 |Company: Autodesk,Inc. |WEB Address: www.autodesk.com
 90
      129
 91
        1
280
     0
281
     0
  0
CLASS
  1
AEC_DISP_REP_MASS_ELEM_SCHEM
  2
AecDbDispRepMassElemSchem
  3
AecBaseEx70|Product Desc: Autodesk Architectural Desktop 2007 |Company: Autodesk,Inc. |WEB Address: www.autodesk.com
 90
      129
 91
        1
280
     0
281
     0
  0
CLASS
  1
AEC_DISP_PROPS_MASS_ELEM_MODEL
  2
AecDbDispPropsMassElem
  3
AecBaseEx70|Product Desc: Autodesk Architectural Desktop 2007 |Company: Autodesk,Inc. |WEB Address: www.autodesk.com
 90
      129
 91
        3
280
     0
281
     0
  0
CLASS
  1
AEC_DISP_REP_MASS_GROUP_PLAN
  2
AecDbDispRepMassGroupPlan
  3
AecBaseEx70|Product Desc: Autodesk Architectural Desktop 2007 |Company: Autodesk,Inc. |WEB Address: www.autodesk.com
 90
      129
 91
        1
280
     0
281
     0
  0
CLASS
  1
AEC_DISP_PROPS_MASS_GROUP
  2
AecDbDispPropsMassGroup
  3
AecBaseEx70|Product Desc: Autodesk Architectural Desktop 2007 |Company: Autodesk,Inc. |WEB Address: www.autodesk.com
 90
      129
 91
        3
280
     0
281
     0
  0
CLASS
  1
AEC_DISP_REP_MASS_GROUP_MODEL
  2
AecDbDispRepMassGroupModel
  3
AecBaseEx70|Product Desc: Autodesk Architectural Desktop 2007 |Company: Autodesk,Inc. |WEB Address: www.autodesk.com
 90
      129
 91
        1
280
     0
281
     0
  0
CLASS
  1
AEC_DISP_REP_MASS_ELEM_MODEL
  2
AecDbDispRepMassElemModel
  3
AecBaseEx70|Product Desc: Autodesk Architectural Desktop 2007 |Company: Autodesk,Inc. |WEB Address: www.autodesk.com
 90
      129
 91
        1
280
     0
281
     0
  0
CLASS
  1
AEC_DISP_REP_WINDOW_ELEV
  2
AecDbDispRepWindowElev
  3
AecArchBase70|Product Desc: Autodesk Architectural Desktop 2007 |Company: Autodesk,Inc. |WEB Address: www.autodesk.com
 90
      129
 91
        1
280
     0
281
     0
  0
CLASS
  1
AEC_DISP_PROPS_WINDOW
  2
AecDbDispPropsWindow
  3
AecArchBase70|Product Desc: Autodesk Architectural Desktop 2007 |Company: Autodesk,Inc. |WEB Address: www.autodesk.com
 90
      129
 91
        4
280
     0
281
     0
  0
CLASS
  1
AEC_DISP_REP_WALL_MODEL
  2
AecDbDispRepWallModel
  3
AecArchBase70|Product Desc: Autodesk Architectural Desktop 2007 |Company: Autodesk,Inc. |WEB Address: www.autodesk.com
 90
      129
 91
        1
280
     0
281
     0
  0
CLASS
  1
AEC_DISP_PROPS_WALL_MODEL
  2
AecDbDispPropsWallModel
  3
AecArchBase70|Product Desc: Autodesk Architectural Desktop 2007 |Company: Autodesk,Inc. |WEB Address: www.autodesk.com
 90
      129
 91
        1
280
     0
281
     0
  0
CLASS
  1
AEC_DISP_REP_WINDOW_PLAN_50
  2
AecDbDispRepWindowPlan50
  3
AecArchBase70|Product Desc: Autodesk Architectural Desktop 2007 |Company: Autodesk,Inc. |WEB Address: www.autodesk.com
 90
      129
 91
        1
280
     0
281
     0
  0
CLASS
  1
AEC_DISP_PROPS_WINDOW_PLAN_50
  2
AecDbDispPropsWindowPlan50
  3
AecArchBase70|Product Desc: Autodesk Architectural Desktop 2007 |Company: Autodesk,Inc. |WEB Address: www.autodesk.com
 90
      129
 91
        1
280
     0
281
     0
  0
CLASS
  1
AEC_DISP_REP_WALL_RCP
  2
AecDbDispRepWallRcp
  3
AecArchBase70|Product Desc: Autodesk Architectural Desktop 2007 |Company: Autodesk,Inc. |WEB Address: www.autodesk.com
 90
      129
 91
        1
280
     0
281
     0
  0
CLASS
  1
AEC_DISP_PROPS_WALL_PLAN
  2
AecDbDispPropsWallPlan
  3
AecArchBase70|Product Desc: Autodesk Architectural Desktop 2007 |Company: Autodesk,Inc. |WEB Address: www.autodesk.com
 90
      129
 91
        4
280
     0
281
     0
  0
CLASS
  1
AEC_DISP_REP_WINDOW_PLAN
  2
AecDbDispRepWindowPlan
  3
AecArchBase70|Product Desc: Autodesk Architectural Desktop 2007 |Company: Autodesk,Inc. |WEB Address: www.autodesk.com
 90
      129
 91
        1
280
     0
281
     0
  0
CLASS
  1
AEC_DISP_REP_WINDOW_PLAN_100
  2
AecDbDispRepWindowPlan100
  3
AecArchBase70|Product Desc: Autodesk Architectural Desktop 2007 |Company: Autodesk,Inc. |WEB Address: www.autodesk.com
 90
      129
 91
        1
280
     0
281
     0
  0
CLASS
  1
AEC_DISP_PROPS_WINDOW_PLAN_100
  2
AecDbDispPropsWindowPlan100
  3
AecArchBase70|Product Desc: Autodesk Architectural Desktop 2007 |Company: Autodesk,Inc. |WEB Address: www.autodesk.com
 90
      129
 91
        1
280
     0
281
     0
  0
CLASS
  1
AEC_DISP_REP_WINDOW_SILL_PLAN
  2
AecDbDispRepWindowSillPlan
  3
AecArchBase70|Product Desc: Autodesk Architectural Desktop 2007 |Company: Autodesk,Inc. |WEB Address: www.autodesk.com
 90
      129
 91
        1
280
     0
281
     0
  0
CLASS
  1
AEC_DISP_PROPS_WINDOW_SILL_PLAN
  2
AecDbDispPropsWindowSillPlan
  3
AecArchBase70|Product Desc: Autodesk Architectural Desktop 2007 |Company: Autodesk,Inc. |WEB Address: www.autodesk.com
 90
      129
 91
        1
280
     0
281
     0
  0
CLASS
  1
AEC_DISP_REP_WINDOW_MODEL
  2
AecDbDispRepWindowModel
  3
AecArchBase70|Product Desc: Autodesk Architectural Desktop 2007 |Company: Autodesk,Inc. |WEB Address: www.autodesk.com
 90
      129
 91
        1
280
     0
281
     0
  0
CLASS
  1
AEC_DISP_REP_STAIR_RCP
  2
AecDbDispRepStairRcp
  3
AecArchBase70|Product Desc: Autodesk Architectural Desktop 2007 |Company: Autodesk,Inc. |WEB Address: www.autodesk.com
 90
      129
 91
        1
280
     0
281
     0
  0
CLASS
  1
AEC_DISP_PROPS_STAIR_PLAN
  2
AecDbDispPropsStairPlan
  3
AecArchBase70|Product Desc: Autodesk Architectural Desktop 2007 |Company: Autodesk,Inc. |WEB Address: www.autodesk.com
 90
      129
 91
        2
280
     0
281
     0
  0
CLASS
  1
AEC_DISP_REP_STAIR_PLAN_OVERLAPPING
  2
AecDbDispRepStairPlanOverlapping
  3
AecArchBase70|Product Desc: Autodesk Architectural Desktop 2007 |Company: Autodesk,Inc. |WEB Address: www.autodesk.com
 90
      129
 91
        1
280
     0
281
     0
  0
CLASS
  1
AEC_DISP_PROPS_STAIR_PLAN_OVERLAPPING
  2
AecDbDispPropsStairPlanOverlapping
  3
AecArchBase70|Product Desc: Autodesk Architectural Desktop 2007 |Company: Autodesk,Inc. |WEB Address: www.autodesk.com
 90
      129
 91
        1
280
     0
281
     0
  0
CLASS
  1
AEC_DISP_REP_WINDOWASSEMBLY_SILL_PLAN
  2
AecDbDispRepWindowAssemblySillPlan
  3
AecArchBase70|Product Desc: Autodesk Architectural Desktop 2007 |Company: Autodesk,Inc. |WEB Address: www.autodesk.com
 90
      129
 91
        1
280
     0
281
     0
  0
CLASS
  1
AEC_DISP_PROPS_WINDOW_ASSEMBLY_SILL_PLAN
  2
AecDbDispPropsWindowAssemblySillPlan
  3
AecArchBase70|Product Desc: Autodesk Architectural Desktop 2007 |Company: Autodesk,Inc. |WEB Address: www.autodesk.com
 90
      129
 91
        1
280
     0
281
     0
  0
CLASS
  1
AEC_DISP_REP_WALL_GRAPH
  2
AecDbDispRepWallGraph
  3
AecArchBase70|Product Desc: Autodesk Architectural Desktop 2007 |Company: Autodesk,Inc. |WEB Address: www.autodesk.com
 90
      129
 91
        1
280
     0
281
     0
  0
CLASS
  1
AEC_DISP_PROPS_WALL_GRAPH
  2
AecDbDispPropsWallGraph
  3
AecArchBase70|Product Desc: Autodesk Architectural Desktop 2007 |Company: Autodesk,Inc. |WEB Address: www.autodesk.com
 90
      129
 91
        1
280
     0
281
     0
  0
CLASS
  1
AEC_DISP_REP_WALL_SCHEM
  2
AecDbDispRepWallSchem
  3
AecArchBase70|Product Desc: Autodesk Architectural Desktop 2007 |Company: Autodesk,Inc. |WEB Address: www.autodesk.com
 90
      129
 91
        1
280
     0
281
     0
  0
CLASS
  1
AEC_DISP_PROPS_WALL_SCHEM
  2
AecDbDispPropsWallSchem
  3
AecArchBase70|Product Desc: Autodesk Architectural Desktop 2007 |Company: Autodesk,Inc. |WEB Address: www.autodesk.com
 90
      129
 91
        1
280
     0
281
     0
  0
CLASS
  1
AEC_DISP_REP_WINDOW_ASSEMBLY_MODEL
  2
AecDbDispRepWindowAssemblyModel
  3
AecArchBase70|Product Desc: Autodesk Architectural Desktop 2007 |Company: Autodesk,Inc. |WEB Address: www.autodesk.com
 90
      129
 91
        1
280
     0
281
     0
  0
CLASS
  1
AEC_DISP_PROPS_GRID_ASSEMBLY_MODEL
  2
AecDbDispPropsGridAssemblyModel
  3
AecArchBase70|Product Desc: Autodesk Architectural Desktop 2007 |Company: Autodesk,Inc. |WEB Address: www.autodesk.com
 90
      129
 91
        3
280
     0
281
     0
  0
CLASS
  1
AEC_DISP_REP_WINDOW_RCP
  2
AecDbDispRepWindowRcp
  3
AecArchBase70|Product Desc: Autodesk Architectural Desktop 2007 |Company: Autodesk,Inc. |WEB Address: www.autodesk.com
 90
      129
 91
        1
280
     0
281
     0
  0
CLASS
  1
AEC_DISP_REP_WINDOW_NOMINAL
  2
AecDbDispRepWindowNominal
  3
AecArchBase70|Product Desc: Autodesk Architectural Desktop 2007 |Company: Autodesk,Inc. |WEB Address: www.autodesk.com
 90
      129
 91
        1
280
     0
281
     0
  0
CLASS
  1
AEC_DISP_PROPS_WINDOW_NOMINAL
  2
AecDbDispPropsWindowNominal
  3
AecArchBase70|Product Desc: Autodesk Architectural Desktop 2007 |Company: Autodesk,Inc. |WEB Address: www.autodesk.com
 90
      129
 91
        1
280
     0
281
     0
  0
CLASS
  1
AEC_DISP_REP_BDG_SECTIONLINE_PLAN
  2
AecDbDispRepBdgElevLinePlan
  3
AecArchBase70|Product Desc: Autodesk Architectural Desktop 2007 |Company: Autodesk,Inc. |WEB Address: www.autodesk.com
 90
      129
 91
        1
280
     0
281
     0
  0
CLASS
  1
AEC_AECDBDISPREPCEILINGGRIDPLAN100
  2
AecDbDispRepCeilingGridPlan100
  3
AecArchBase70|Product Desc: Autodesk Architectural Desktop 2007 |Company: Autodesk,Inc. |WEB Address: www.autodesk.com
 90
      129
 91
        1
280
     0
281
     0
  0
CLASS
  1
AEC_AECDBDISPREPBDGELEVLINEPLAN100
  2
AecDbDispRepBdgElevLinePlan100
  3
AecArchBase70|Product Desc: Autodesk Architectural Desktop 2007 |Company: Autodesk,Inc. |WEB Address: www.autodesk.com
 90
      129
 91
        1
280
     0
281
     0
  0
CLASS
  1
AEC_AECDBDISPREPBDGSECTIONLINEPLAN100
  2
AecDbDispRepBdgSectionLinePlan100
  3
AecArchBase70|Product Desc: Autodesk Architectural Desktop 2007 |Company: Autodesk,Inc. |WEB Address: www.autodesk.com
 90
      129
 91
        1
280
     0
281
     0
  0
CLASS
  1
AEC_DISP_REP_CURTAIN_WALL_LAYOUT_PLAN
  2
AecDbDispRepCurtainWallLayoutPlan
  3
AecArchBase70|Product Desc: Autodesk Architectural Desktop 2007 |Company: Autodesk,Inc. |WEB Address: www.autodesk.com
 90
      129
 91
        1
280
     0
281
     0
  0
CLASS
  1
AEC_DISP_PROPS_GRID_ASSEMBLY_PLAN
  2
AecDbDispPropsGridAssemblyPlan
  3
AecArchBase70|Product Desc: Autodesk Architectural Desktop 2007 |Company: Autodesk,Inc. |WEB Address: www.autodesk.com
 90
      129
 91
        9
280
     0
281
     0
  0
CLASS
  1
AEC_DISP_REP_CEILING_GRID
  2
AecDbDispRepCeilingGrid
  3
AecArchBase70|Product Desc: Autodesk Architectural Desktop 2007 |Company: Autodesk,Inc. |WEB Address: www.autodesk.com
 90
      893
 91
        1
280
     0
281
     0
  0
CLASS
  1
AEC_AECDBDISPREPCOLUMNGRIDPLAN100
  2
AecDbDispRepColumnGridPlan100
  3
AecArchBase70|Product Desc: Autodesk Architectural Desktop 2007 |Company: Autodesk,Inc. |WEB Address: www.autodesk.com
 90
      129
 91
        1
280
     0
281
     0
  0
CLASS
  1
AEC_DISP_REP_CURTAIN_WALL_UNIT_PLAN
  2
AecDbDispRepCurtainWallUnitPlan
  3
AecArchBase70|Product Desc: Autodesk Architectural Desktop 2007 |Company: Autodesk,Inc. |WEB Address: www.autodesk.com
 90
      129
 91
        1
280
     0
281
     0
  0
CLASS
  1
AEC_AECDBDISPREPCURTAINWALLUNITPLAN100
  2
AecDbDispRepCurtainWallUnitPlan100
  3
AecArchBase70|Product Desc: Autodesk Architectural Desktop 2007 |Company: Autodesk,Inc. |WEB Address: www.autodesk.com
 90
      129
 91
        1
280
     0
281
     0
  0
CLASS
  1
AEC_DISP_REP_BDG_SECTIONLINE_PLAN
  2
AecDbDispRepBdgSectionLinePlan
  3
AecArchBase70|Product Desc: Autodesk Architectural Desktop 2007 |Company: Autodesk,Inc. |WEB Address: www.autodesk.com
 90
      129
 91
        1
280
     0
281
     0
  0
CLASS
  1
AEC_DISP_REP_COLUMN_GRID
  2
AecDbDispRepColumnGrid
  3
AecArchBase70|Product Desc: Autodesk Architectural Desktop 2007 |Company: Autodesk,Inc. |WEB Address: www.autodesk.com
 90
      129
 91
        1
280
     0
281
     0
  0
CLASS
  1
AEC_AECDBDISPREPCURTAINWALLLAYOUTPLAN100
  2
AecDbDispRepCurtainWallLayoutPlan100
  3
AecArchBase70|Product Desc: Autodesk Architectural Desktop 2007 |Company: Autodesk,Inc. |WEB Address: www.autodesk.com
 90
      129
 91
        1
280
     0
281
     0
  0
CLASS
  1
AEC_AECDBDISPREPMVBLOCKREFPLAN100
  2
AecDbDispRepMvBlockRefPlan100
  3
AecArchBase70|Product Desc: Autodesk Architectural Desktop 2007 |Company: Autodesk,Inc. |WEB Address: www.autodesk.com
 90
      129
 91
        1
280
     0
281
     0
  0
CLASS
  1
AEC_DISP_REP_ROOFSLAB_PLAN
  2
AecDbDispRepRoofSlabPlan
  3
AecArchBase70|Product Desc: Autodesk Architectural Desktop 2007 |Company: Autodesk,Inc. |WEB Address: www.autodesk.com
 90
      129
 91
        1
280
     0
281
     0
  0
CLASS
  1
AEC_DISP_PROPS_ROOFSLAB_PLAN
  2
AecDbDispPropsRoofSlabPlan
  3
AecArchBase70|Product Desc: Autodesk Architectural Desktop 2007 |Company: Autodesk,Inc. |WEB Address: www.autodesk.com
 90
      129
 91
        3
280
     0
281
     0
  0
CLASS
  1
AEC_DISP_REP_ROOF_PLAN
  2
AecDbDispRepRoofPlan
  3
AecArchBase70|Product Desc: Autodesk Architectural Desktop 2007 |Company: Autodesk,Inc. |WEB Address: www.autodesk.com
 90
      129
 91
        1
280
     0
281
     0
  0
CLASS
  1
AEC_DISP_PROPS_ROOF
  2
AecDbDispPropsRoof
  3
AecArchBase70|Product Desc: Autodesk Architectural Desktop 2007 |Company: Autodesk,Inc. |WEB Address: www.autodesk.com
 90
      129
 91
        5
280
     0
281
     0
  0
CLASS
  1
AEC_AECDBDISPREPSLABPLAN100
  2
AecDbDispRepSlabPlan100
  3
AecArchBase70|Product Desc: Autodesk Architectural Desktop 2007 |Company: Autodesk,Inc. |WEB Address: www.autodesk.com
 90
      129
 91
        1
280
     0
281
     0
  0
CLASS
  1
AEC_DISP_PROPS_SLAB_PLAN
  2
AecDbDispPropsSlabPlan
  3
AecArchBase70|Product Desc: Autodesk Architectural Desktop 2007 |Company: Autodesk,Inc. |WEB Address: www.autodesk.com
 90
      129
 91
        3
280
     0
281
     0
  0
CLASS
  1
AEC_DISP_REP_SPACE_PLAN
  2
AecDbDispRepSpacePlan
  3
AecArchBase70|Product Desc: Autodesk Architectural Desktop 2007 |Company: Autodesk,Inc. |WEB Address: www.autodesk.com
 90
      129
 91
        1
280
     0
281
     0
  0
CLASS
  1
AEC_DISP_PROPS_SPACE_PLAN
  2
AecDbDispPropsSpacePlan
  3
AecArchBase70|Product Desc: Autodesk Architectural Desktop 2007 |Company: Autodesk,Inc. |WEB Address: www.autodesk.com
 90
      129
 91
        4
280
     0
281
     0
  0
CLASS
  1
AEC_AECDBDISPREPROOFSLABPLAN100
  2
AecDbDispRepRoofSlabPlan100
  3
AecArchBase70|Product Desc: Autodesk Architectural Desktop 2007 |Company: Autodesk,Inc. |WEB Address: www.autodesk.com
 90
      129
 91
        1
280
     0
281
     0
  0
CLASS
  1
AEC_AECDBDISPREPSPACEPLAN100
  2
AecDbDispRepSpacePlan100
  3
AecArchBase70|Product Desc: Autodesk Architectural Desktop 2007 |Company: Autodesk,Inc. |WEB Address: www.autodesk.com
 90
      129
 91
        1
280
     0
281
     0
  0
CLASS
  1
AEC_AECDBDISPREPWALLPLAN100
  2
AecDbDispRepWallPlan100
  3
AecArchBase70|Product Desc: Autodesk Architectural Desktop 2007 |Company: Autodesk,Inc. |WEB Address: www.autodesk.com
 90
      129
 91
        1
280
     0
281
     0
  0
CLASS
  1
AEC_DISP_REP_SLAB_PLAN
  2
AecDbDispRepSlabPlan
  3
AecArchBase70|Product Desc: Autodesk Architectural Desktop 2007 |Company: Autodesk,Inc. |WEB Address: www.autodesk.com
 90
      129
 91
        1
280
     0
281
     0
  0
CLASS
  1
AEC_DISP_REP_WALL_PLAN
  2
AecDbDispRepWallPlan
  3
AecArchBase70|Product Desc: Autodesk Architectural Desktop 2007 |Company: Autodesk,Inc. |WEB Address: www.autodesk.com
 90
      129
 91
        1
280
     0
281
     0
  0
CLASS
  1
AEC_AECDBDISPREPROOFPLAN100
  2
AecDbDispRepRoofPlan100
  3
AecArchBase70|Product Desc: Autodesk Architectural Desktop 2007 |Company: Autodesk,Inc. |WEB Address: www.autodesk.com
 90
      129
 91
        1
280
     0
281
     0
  0
CLASS
  1
AEC_AECDBDISPREPZONE100
  2
AecDbDispRepZonePlan100
  3
AecArchBase70|Product Desc: Autodesk Architectural Desktop 2007 |Company: Autodesk,Inc. |WEB Address: www.autodesk.com
 90
      129
 91
        1
280
     0
281
     0
  0
CLASS
  1
AEC_DISP_PROPS_ZONE
  2
AecDbDispPropsZone
  3
AecArchBase70|Product Desc: Autodesk Architectural Desktop 2007 |Company: Autodesk,Inc. |WEB Address: www.autodesk.com
 90
      129
 91
        3
280
     0
281
     0
  0
CLASS
  1
AEC_DISP_REP_ZONE
  2
AecDbDispRepZone
  3
AecArchBase70|Product Desc: Autodesk Architectural Desktop 2007 |Company: Autodesk,Inc. |WEB Address: www.autodesk.com
 90
      129
 91
        1
280
     0
281
     0
  0
CLASS
  1
AEC_AECDBDISPREPCURTAINWALLUNITPLAN50
  2
AecDbDispRepCurtainWallUnitPlan50
  3
AecArchBase70|Product Desc: Autodesk Architectural Desktop 2007 |Company: Autodesk,Inc. |WEB Address: www.autodesk.com
 90
      129
 91
        1
280
     0
281
     0
  0
CLASS
  1
AEC_AECDBDISPREPCOLUMNGRIDPLAN50
  2
AecDbDispRepColumnGridPlan50
  3
AecArchBase70|Product Desc: Autodesk Architectural Desktop 2007 |Company: Autodesk,Inc. |WEB Address: www.autodesk.com
 90
      129
 91
        1
280
     0
281
     0
  0
CLASS
  1
AEC_AECDBDISPREPBDGSECTIONLINEPLAN50
  2
AecDbDispRepBdgSectionLinePlan50
  3
AecArchBase70|Product Desc: Autodesk Architectural Desktop 2007 |Company: Autodesk,Inc. |WEB Address: www.autodesk.com
 90
      129
 91
        1
280
     0
281
     0
  0
CLASS
  1
AEC_AECDBDISPREPMVBLOCKREFPLAN50
  2
AecDbDispRepMvBlockRefPlan50
  3
AecArchBase70|Product Desc: Autodesk Architectural Desktop 2007 |Company: Autodesk,Inc. |WEB Address: www.autodesk.com
 90
      129
 91
        1
280
     0
281
     0
  0
CLASS
  1
AEC_DISP_REP_WINDOW_ASSEMBLY_PLAN
  2
AecDbDispRepWindowAssemblyPlan
  3
AecArchBase70|Product Desc: Autodesk Architectural Desktop 2007 |Company: Autodesk,Inc. |WEB Address: www.autodesk.com
 90
      129
 91
        1
280
     0
281
     0
  0
CLASS
  1
AEC_AECDBDISPREPWINDOWASSEMBLYPLAN100
  2
AecDbDispRepWindowAssemblyPlan100
  3
AecArchBase70|Product Desc: Autodesk Architectural Desktop 2007 |Company: Autodesk,Inc. |WEB Address: www.autodesk.com
 90
      129
 91
        1
280
     0
281
     0
  0
CLASS
  1
AEC_AECDBDISPREPCEILINGGRIDPLAN50
  2
AecDbDispRepCeilingGridPlan50
  3
AecArchBase70|Product Desc: Autodesk Architectural Desktop 2007 |Company: Autodesk,Inc. |WEB Address: www.autodesk.com
 90
      129
 91
        1
280
     0
281
     0
  0
CLASS
  1
AEC_AECDBDISPREPROOFPLAN50
  2
AecDbDispRepRoofPlan50
  3
AecArchBase70|Product Desc: Autodesk Architectural Desktop 2007 |Company: Autodesk,Inc. |WEB Address: www.autodesk.com
 90
      129
 91
        1
280
     0
281
     0
  0
CLASS
  1
AEC_AECDBDISPREPSLABPLAN50
  2
AecDbDispRepSlabPlan50
  3
AecArchBase70|Product Desc: Autodesk Architectural Desktop 2007 |Company: Autodesk,Inc. |WEB Address: www.autodesk.com
 90
      129
 91
        1
280
     0
281
     0
  0
CLASS
  1
AEC_AECDBDISPREPBDGELEVLINEPLAN50
  2
AecDbDispRepBdgElevLinePlan50
  3
AecArchBase70|Product Desc: Autodesk Architectural Desktop 2007 |Company: Autodesk,Inc. |WEB Address: www.autodesk.com
 90
      129
 91
        1
280
     0
281
     0
  0
CLASS
  1
AEC_AECDBDISPREPCURTAINWALLLAYOUTPLAN50
  2
AecDbDispRepCurtainWallLayoutPlan50
  3
AecArchBase70|Product Desc: Autodesk Architectural Desktop 2007 |Company: Autodesk,Inc. |WEB Address: www.autodesk.com
 90
      129
 91
        1
280
     0
281
     0
  0
CLASS
  1
AEC_AECDBDISPREPROOFSLABPLAN50
  2
AecDbDispRepRoofSlabPlan50
  3
AecArchBase70|Product Desc: Autodesk Architectural Desktop 2007 |Company: Autodesk,Inc. |WEB Address: www.autodesk.com
 90
      129
 91
        1
280
     0
281
     0
  0
CLASS
  1
AEC_AECDBDISPREPWALLPLAN50
  2
AecDbDispRepWallPlan50
  3
AecArchBase70|Product Desc: Autodesk Architectural Desktop 2007 |Company: Autodesk,Inc. |WEB Address: www.autodesk.com
 90
      129
 91
        1
280
     0
281
     0
  0
CLASS
  1
AEC_AECDBDISPREPSPACEPLAN50
  2
AecDbDispRepSpacePlan50
  3
AecArchBase70|Product Desc: Autodesk Architectural Desktop 2007 |Company: Autodesk,Inc. |WEB Address: www.autodesk.com
 90
      129
 91
        1
280
     0
281
     0
  0
CLASS
  1
AEC_AECDBDISPREPZONE50
  2
AecDbDispRepZonePlan50
  3
AecArchBase70|Product Desc: Autodesk Architectural Desktop 2007 |Company: Autodesk,Inc. |WEB Address: www.autodesk.com
 90
      129
 91
        1
280
     0
281
     0
  0
CLASS
  1
AEC_AECDBDISPREPWINDOWASSEMBLYPLAN50
  2
AecDbDispRepWindowAssemblyPlan50
  3
AecArchBase70|Product Desc: Autodesk Architectural Desktop 2007 |Company: Autodesk,Inc. |WEB Address: www.autodesk.com
 90
      129
 91
        1
280
     0
281
     0
  0
CLASS
  1
AEC_DISP_REP_ANCHOR_BUB_TO_GRID
  2
AecDbDispRepAnchorBubToGrid
  3
AecArchBase70|Product Desc: Autodesk Architectural Desktop 2007 |Company: Autodesk,Inc. |WEB Address: www.autodesk.com
 90
      129
 91
        1
280
     0
281
     0
  0
CLASS
  1
AEC_DISP_REP_CEILING_GRID_RCP
  2
AecDbDispRepCeilingGridRcp
  3
AecArchBase70|Product Desc: Autodesk Architectural Desktop 2007 |Company: Autodesk,Inc. |WEB Address: www.autodesk.com
 90
      129
 91
        1
280
     0
281
     0
  0
CLASS
  1
AEC_DISP_REP_ANCHOR_BUB_TO_GRID_RCP
  2
AecDbDispRepAnchorBubToGridRcp
  3
AecArchBase70|Product Desc: Autodesk Architectural Desktop 2007 |Company: Autodesk,Inc. |WEB Address: www.autodesk.com
 90
      129
 91
        1
280
     0
281
     0
  0
CLASS
  1
AEC_DISP_REP_CURTAIN_WALL_UNIT_MODEL
  2
AecDbDispRepCurtainWallUnitModel
  3
AecArchBase70|Product Desc: Autodesk Architectural Desktop 2007 |Company: Autodesk,Inc. |WEB Address: www.autodesk.com
 90
      129
 91
        1
280
     0
281
     0
  0
CLASS
  1
AEC_DB_DISP_REP_DIM_GROUP_PLAN100
  2
AecDbDispRepDimGroupPlan100
  3
AecArchBase70|Product Desc: Autodesk Architectural Desktop 2007 |Company: Autodesk,Inc. |WEB Address: www.autodesk.com
 90
      129
 91
        1
280
     0
281
     0
  0
CLASS
  1
AEC_DISP_PROPS_DIM
  2
AecDbDispPropsDimGroup
  3
AecArchBase70|Product Desc: Autodesk Architectural Desktop 2007 |Company: Autodesk,Inc. |WEB Address: www.autodesk.com
 90
      129
 91
        3
280
     0
281
     0
  0
CLASS
  1
AEC_DISP_REP_BDG_ELEVLINE_RCP
  2
AecDbDispRepBdgElevLineRcp
  3
AecArchBase70|Product Desc: Autodesk Architectural Desktop 2007 |Company: Autodesk,Inc. |WEB Address: www.autodesk.com
 90
      129
 91
        1
280
     0
281
     0
  0
CLASS
  1
AEC_DISP_REP_BDG_SECTION_MODEL
  2
AecDbDispRepBdgSectionModel
  3
AecArchBase70|Product Desc: Autodesk Architectural Desktop 2007 |Company: Autodesk,Inc. |WEB Address: www.autodesk.com
 90
      129
 91
        1
280
     0
281
     0
  0
CLASS
  1
AEC_DISP_REP_BDG_SECTION_SUBDIV
  2
AecDbDispRepBdgSectionSubDiv
  3
AecArchBase70|Product Desc: Autodesk Architectural Desktop 2007 |Company: Autodesk,Inc. |WEB Address: www.autodesk.com
 90
      129
 91
        1
280
     0
281
     0
  0
CLASS
  1
AEC_DISP_REP_CEILING_GRID_MODEL
  2
AecDbDispRepCeilingGridModel
  3
AecArchBase70|Product Desc: Autodesk Architectural Desktop 2007 |Company: Autodesk,Inc. |WEB Address: www.autodesk.com
 90
      129
 91
        1
280
     0
281
     0
  0
CLASS
  1
AEC_DISP_REP_BDG_SECTIONLINE_MODEL
  2
AecDbDispRepBdgSectionLineModel
  3
AecArchBase70|Product Desc: Autodesk Architectural Desktop 2007 |Company: Autodesk,Inc. |WEB Address: www.autodesk.com
 90
      129
 91
        1
280
     0
281
     0
  0
CLASS
  1
AEC_DISP_REP_COLUMN_GRID_MODEL
  2
AecDbDispRepColumnGridModel
  3
AecArchBase70|Product Desc: Autodesk Architectural Desktop 2007 |Company: Autodesk,Inc. |WEB Address: www.autodesk.com
 90
      129
 91
        1
280
     0
281
     0
  0
CLASS
  1
AEC_DISP_REP_COLUMN_GRID_RCP
  2
AecDbDispRepColumnGridRcp
  3
AecArchBase70|Product Desc: Autodesk Architectural Desktop 2007 |Company: Autodesk,Inc. |WEB Address: www.autodesk.com
 90
      129
 91
        1
280
     0
281
     0
  0
CLASS
  1
AEC_DISP_REP_BDG_SECTIONLINE_RCP
  2
AecDbDispRepBdgSectionLineRcp
  3
AecArchBase70|Product Desc: Autodesk Architectural Desktop 2007 |Company: Autodesk,Inc. |WEB Address: www.autodesk.com
 90
      129
 91
        1
280
     0
281
     0
  0
CLASS
  1
AEC_DISP_REP_BDG_ELEVLINE_MODEL
  2
AecDbDispRepBdgElevLineModel
  3
AecArchBase70|Product Desc: Autodesk Architectural Desktop 2007 |Company: Autodesk,Inc. |WEB Address: www.autodesk.com
 90
      129
 91
        1
280
     0
281
     0
  0
CLASS
  1
AEC_DISP_REP_CURTAIN_WALL_LAYOUT_MODEL
  2
AecDbDispRepCurtainWallLayoutModel
  3
AecArchBase70|Product Desc: Autodesk Architectural Desktop 2007 |Company: Autodesk,Inc. |WEB Address: www.autodesk.com
 90
      129
 91
        1
280
     0
281
     0
  0
CLASS
  1
AEC_DISP_REP_ANCHOR_BUB_TO_GRID_MODEL
  2
AecDbDispRepAnchorBubToGridMdl
  3
AecArchBase70|Product Desc: Autodesk Architectural Desktop 2007 |Company: Autodesk,Inc. |WEB Address: www.autodesk.com
 90
      129
 91
        1
280
     0
281
     0
  0
CLASS
  1
AEC_DISP_REP_DOOR_THRESHOLD_SYMBOL_PLAN
  2
AecDbDispRepDoorThresholdSymbolPlan
  3
AecArchBase70|Product Desc: Autodesk Architectural Desktop 2007 |Company: Autodesk,Inc. |WEB Address: www.autodesk.com
 90
      129
 91
        1
280
     0
281
     0
  0
CLASS
  1
AEC_DISP_PROPS_DOOR_THRESHOLD_SYMBOL_PLAN
  2
AecDbDispPropsDoorThresholdSymbolPlan
  3
AecArchBase70|Product Desc: Autodesk Architectural Desktop 2007 |Company: Autodesk,Inc. |WEB Address: www.autodesk.com
 90
      129
 91
        1
280
     0
281
     0
  0
CLASS
  1
AEC_DISP_REP_DOOR_PLAN_HEKTO
  2
AecDbDispRepDoorPlanHekto
  3
AecArchBase70|Product Desc: Autodesk Architectural Desktop 2007 |Company: Autodesk,Inc. |WEB Address: www.autodesk.com
 90
      129
 91
        1
280
     0
281
     0
  0
CLASS
  1
AEC_DISP_PROPS_DOOR_PLAN_100
  2
AecDbDispPropsDoorPlan100
  3
AecArchBase70|Product Desc: Autodesk Architectural Desktop 2007 |Company: Autodesk,Inc. |WEB Address: www.autodesk.com
 90
      129
 91
        1
280
     0
281
     0
  0
CLASS
  1
AEC_DISPREPAECDBDISPREPMASSGROUPPLAN50
  2
AecDbDispRepMassGroupPlan50
  3
AecArchBase70|Product Desc: Autodesk Architectural Desktop 2007 |Company: Autodesk,Inc. |WEB Address: www.autodesk.com
 90
      129
 91
        1
280
     0
281
     0
  0
CLASS
  1
AEC_DISPROPSMASSGROUPPLANCOMMON
  2
AecDbDispPropsMassGroupPlanCommon
  3
AecArchBase70|Product Desc: Autodesk Architectural Desktop 2007 |Company: Autodesk,Inc. |WEB Address: www.autodesk.com
 90
      129
 91
        2
280
     0
281
     0
  0
CLASS
  1
AEC_DISP_REP_MASS_GROUP_RCP
  2
AecDbDispRepMassGroupRcp
  3
AecArchBase70|Product Desc: Autodesk Architectural Desktop 2007 |Company: Autodesk,Inc. |WEB Address: www.autodesk.com
 90
      129
 91
        1
280
     0
281
     0
  0
CLASS
  1
AEC_DB_DISP_REP_DIM_GROUP_PLAN50
  2
AecDbDispRepDimGroupPlan50
  3
AecArchBase70|Product Desc: Autodesk Architectural Desktop 2007 |Company: Autodesk,Inc. |WEB Address: www.autodesk.com
 90
      129
 91
        1
280
     0
281
     0
  0
CLASS
  1
AEC_DISP_REP_DOOR_MODEL
  2
AecDbDispRepDoorModel
  3
AecArchBase70|Product Desc: Autodesk Architectural Desktop 2007 |Company: Autodesk,Inc. |WEB Address: www.autodesk.com
 90
      129
 91
        1
280
     0
281
     0
  0
CLASS
  1
AEC_DISP_PROPS_DOOR
  2
AecDbDispPropsDoor
  3
AecArchBase70|Product Desc: Autodesk Architectural Desktop 2007 |Company: Autodesk,Inc. |WEB Address: www.autodesk.com
 90
      129
 91
        4
280
     0
281
     0
  0
CLASS
  1
AEC_DISP_REP_DOOR_PLAN_50
  2
AecDbDispRepDoorPlan50
  3
AecArchBase70|Product Desc: Autodesk Architectural Desktop 2007 |Company: Autodesk,Inc. |WEB Address: www.autodesk.com
 90
      129
 91
        1
280
     0
281
     0
  0
CLASS
  1
AEC_DISP_PROPS_DOOR_PLAN_50
  2
AecDbDispPropsDoorPlan50
  3
AecArchBase70|Product Desc: Autodesk Architectural Desktop 2007 |Company: Autodesk,Inc. |WEB Address: www.autodesk.com
 90
      129
 91
        1
280
     0
281
     0
  0
CLASS
  1
AEC_DISP_REP_DOOR_THRESHOLD_PLAN
  2
AecDbDispRepDoorThresholdPlan
  3
AecArchBase70|Product Desc: Autodesk Architectural Desktop 2007 |Company: Autodesk,Inc. |WEB Address: www.autodesk.com
 90
      129
 91
        1
280
     0
281
     0
  0
CLASS
  1
AEC_DISP_PROPS_DOOR_THRESHOLD_PLAN
  2
AecDbDispPropsDoorThresholdPlan
  3
AecArchBase70|Product Desc: Autodesk Architectural Desktop 2007 |Company: Autodesk,Inc. |WEB Address: www.autodesk.com
 90
      129
 91
        1
280
     0
281
     0
  0
CLASS
  1
AEC_DISP_REP_MASKBLOCK_REF_RCP
  2
AecDbDispRepMaskBlockRefRcp
  3
AecArchBase70|Product Desc: Autodesk Architectural Desktop 2007 |Company: Autodesk,Inc. |WEB Address: www.autodesk.com
 90
      129
 91
        1
280
     0
281
     0
  0
CLASS
  1
AEC_DISP_REP_DOOR_ELEV
  2
AecDbDispRepDoorElev
  3
AecArchBase70|Product Desc: Autodesk Architectural Desktop 2007 |Company: Autodesk,Inc. |WEB Address: www.autodesk.com
 90
      129
 91
        1
280
     0
281
     0
  0
CLASS
  1
AEC_DISPREPAECDBDISPREPMASSELEMPLAN50
  2
AecDbDispRepMassElemPlan50
  3
AecArchBase70|Product Desc: Autodesk Architectural Desktop 2007 |Company: Autodesk,Inc. |WEB Address: www.autodesk.com
 90
      129
 91
        1
280
     0
281
     0
  0
CLASS
  1
AEC_DISPROPSMASSELEMPLANCOMMON
  2
AecDbDispPropsMassElemPlanCommon
  3
AecArchBase70|Product Desc: Autodesk Architectural Desktop 2007 |Company: Autodesk,Inc. |WEB Address: www.autodesk.com
 90
      129
 91
        2
280
     0
281
     0
  0
CLASS
  1
AEC_DISP_REP_DOOR_NOMINAL
  2
AecDbDispRepDoorNominal
  3
AecArchBase70|Product Desc: Autodesk Architectural Desktop 2007 |Company: Autodesk,Inc. |WEB Address: www.autodesk.com
 90
      129
 91
        1
280
     0
281
     0
  0
CLASS
  1
AEC_DISP_PROPS_DOOR_NOMINAL
  2
AecDbDispPropsDoorNominal
  3
AecArchBase70|Product Desc: Autodesk Architectural Desktop 2007 |Company: Autodesk,Inc. |WEB Address: www.autodesk.com
 90
      129
 91
        1
280
     0
281
     0
  0
CLASS
  1
AEC_DISPREPAECDBDISPREPMASSELEMPLAN100
  2
AecDbDispRepMassElemPlan100
  3
AecArchBase70|Product Desc: Autodesk Architectural Desktop 2007 |Company: Autodesk,Inc. |WEB Address: www.autodesk.com
 90
      129
 91
        1
280
     0
281
     0
  0
CLASS
  1
AEC_DISP_REP_MASS_ELEM_RCP
  2
AecDbDispRepMassElemRcp
  3
AecArchBase70|Product Desc: Autodesk Architectural Desktop 2007 |Company: Autodesk,Inc. |WEB Address: www.autodesk.com
 90
      129
 91
        1
280
     0
281
     0
  0
CLASS
  1
AEC_DISP_REP_DOOR_PLAN
  2
AecDbDispRepDoorPlan
  3
AecArchBase70|Product Desc: Autodesk Architectural Desktop 2007 |Company: Autodesk,Inc. |WEB Address: www.autodesk.com
 90
      129
 91
        1
280
     0
281
     0
  0
CLASS
  1
AEC_DISP_REP_DOOR_RCP
  2
AecDbDispRepDoorRcp
  3
AecArchBase70|Product Desc: Autodesk Architectural Desktop 2007 |Company: Autodesk,Inc. |WEB Address: www.autodesk.com
 90
      129
 91
        1
280
     0
281
     0
  0
CLASS
  1
AEC_DISPREPAECDBDISPREPMASSGROUPPLAN100
  2
AecDbDispRepMassGroupPlan100
  3
AecArchBase70|Product Desc: Autodesk Architectural Desktop 2007 |Company: Autodesk,Inc. |WEB Address: www.autodesk.com
 90
      129
 91
        1
280
     0
281
     0
  0
CLASS
  1
AEC_DB_DISP_REP_DIM_GROUP_PLAN
  2
AecDbDispRepDimGroupPlan
  3
AecArchBase70|Product Desc: Autodesk Architectural Desktop 2007 |Company: Autodesk,Inc. |WEB Address: www.autodesk.com
 90
      129
 91
        1
280
     0
281
     0
  0
CLASS
  1
AEC_DISP_REP_OPENING_MODEL
  2
AecDbDispRepOpeningModel
  3
AecArchBase70|Product Desc: Autodesk Architectural Desktop 2007 |Company: Autodesk,Inc. |WEB Address: www.autodesk.com
 90
      129
 91
        1
280
     0
281
     0
  0
CLASS
  1
AEC_DISP_PROPS_OPENING
  2
AecDbDispPropsOpening
  3
AecArchBase70|Product Desc: Autodesk Architectural Desktop 2007 |Company: Autodesk,Inc. |WEB Address: www.autodesk.com
 90
      129
 91
        2
280
     0
281
     0
  0
CLASS
  1
AEC_DISPREPAECDBDISPREPOPENINGPLAN50
  2
AecDbDispRepOpeningPlan50
  3
AecArchBase70|Product Desc: Autodesk Architectural Desktop 2007 |Company: Autodesk,Inc. |WEB Address: www.autodesk.com
 90
      129
 91
        1
280
     0
281
     0
  0
CLASS
  1
AEC_DISPROPSOPENINGPLANCOMMONHATCHED
  2
AecDbDispPropsOpeningPlanCommonHatched
  3
AecArchBase70|Product Desc: Autodesk Architectural Desktop 2007 |Company: Autodesk,Inc. |WEB Address: www.autodesk.com
 90
      129
 91
        2
280
     0
281
     0
  0
CLASS
  1
AEC_DISPREPAECDBDISPREPOPENINGPLANREFLECTED
  2
AecDbDispRepOpeningPlanReflected
  3
AecArchBase70|Product Desc: Autodesk Architectural Desktop 2007 |Company: Autodesk,Inc. |WEB Address: www.autodesk.com
 90
      129
 91
        1
280
     0
281
     0
  0
CLASS
  1
AEC_DISPROPSOPENINGPLANCOMMON
  2
AecDbDispPropsOpeningPlanCommon
  3
AecArchBase70|Product Desc: Autodesk Architectural Desktop 2007 |Company: Autodesk,Inc. |WEB Address: www.autodesk.com
 90
      129
 91
        1
280
     0
281
     0
  0
CLASS
  1
AEC_DISP_REP_OPENING
  2
AecDbDispRepOpening
  3
AecArchBase70|Product Desc: Autodesk Architectural Desktop 2007 |Company: Autodesk,Inc. |WEB Address: www.autodesk.com
 90
      129
 91
        1
280
     0
281
     0
  0
CLASS
  1
AEC_DISP_REP_MVBLOCK_REF_RCP
  2
AecDbDispRepMvBlockRefRcp
  3
AecArchBase70|Product Desc: Autodesk Architectural Desktop 2007 |Company: Autodesk,Inc. |WEB Address: www.autodesk.com
 90
      129
 91
        1
280
     0
281
     0
  0
CLASS
  1
AEC_DISPREPAECDBDISPREPOPENINGPLAN100
  2
AecDbDispRepOpeningPlan100
  3
AecArchBase70|Product Desc: Autodesk Architectural Desktop 2007 |Company: Autodesk,Inc. |WEB Address: www.autodesk.com
 90
      129
 91
        1
280
     0
281
     0
  0
CLASS
  1
AEC_DISPREPAECDBDISPREPOPENINGSILLPLAN
  2
AecDbDispRepOpeningSillPlan
  3
AecArchBase70|Product Desc: Autodesk Architectural Desktop 2007 |Company: Autodesk,Inc. |WEB Address: www.autodesk.com
 90
      129
 91
        1
280
     0
281
     0
  0
CLASS
  1
AEC_DISPROPSOPENINGSILLPLAN
  2
AecDbDispPropsOpeningSillPlan
  3
AecArchBase70|Product Desc: Autodesk Architectural Desktop 2007 |Company: Autodesk,Inc. |WEB Address: www.autodesk.com
 90
      129
 91
        1
280
     0
281
     0
  0
CLASS
  1
AEC_DISP_REP_RAILING_PLAN
  2
AecDbDispRepRailingPlan
  3
AecArchBase70|Product Desc: Autodesk Architectural Desktop 2007 |Company: Autodesk,Inc. |WEB Address: www.autodesk.com
 90
      129
 91
        1
280
     0
281
     0
  0
CLASS
  1
AEC_DISP_PROPS_RAILING_PLAN
  2
AecDbDispPropsRailingPlan
  3
AecArchBase70|Product Desc: Autodesk Architectural Desktop 2007 |Company: Autodesk,Inc. |WEB Address: www.autodesk.com
 90
      129
 91
        1
280
     0
281
     0
  0
CLASS
  1
AEC_DISP_REP_ROOF_MODEL
  2
AecDbDispRepRoofModel
  3
AecArchBase70|Product Desc: Autodesk Architectural Desktop 2007 |Company: Autodesk,Inc. |WEB Address: www.autodesk.com
 90
      129
 91
        1
280
     0
281
     0
  0
CLASS
  1
AEC_DISP_REP_ROOF_RCP
  2
AecDbDispRepRoofRcp
  3
AecArchBase70|Product Desc: Autodesk Architectural Desktop 2007 |Company: Autodesk,Inc. |WEB Address: www.autodesk.com
 90
      129
 91
        1
280
     0
281
     0
  0
CLASS
  1
AEC_DISP_REP_RAILING_PLAN_100
  2
AecDbDispRepRailingPlan100
  3
AecArchBase70|Product Desc: Autodesk Architectural Desktop 2007 |Company: Autodesk,Inc. |WEB Address: www.autodesk.com
 90
      129
 91
        1
280
     0
281
     0
  0
CLASS
  1
AEC_DISP_ROPS_RAILING_PLAN_100
  2
AecDbDispPropsRailingPlan100
  3
AecArchBase70|Product Desc: Autodesk Architectural Desktop 2007 |Company: Autodesk,Inc. |WEB Address: www.autodesk.com
 90
      129
 91
        1
280
     0
281
     0
  0
CLASS
  1
AEC_DISP_REP_RAILING_PLAN_50
  2
AecDbDispRepRailingPlan50
  3
AecArchBase70|Product Desc: Autodesk Architectural Desktop 2007 |Company: Autodesk,Inc. |WEB Address: www.autodesk.com
 90
      129
 91
        1
280
     0
281
     0
  0
CLASS
  1
AEC_DISP_ROPS_RAILING_PLAN_50
  2
AecDbDispPropsRailingPlan50
  3
AecArchBase70|Product Desc: Autodesk Architectural Desktop 2007 |Company: Autodesk,Inc. |WEB Address: www.autodesk.com
 90
      129
 91
        1
280
     0
281
     0
  0
CLASS
  1
AEC_DISP_REP_RAILING_MODEL
  2
AecDbDispRepRailingModel
  3
AecArchBase70|Product Desc: Autodesk Architectural Desktop 2007 |Company: Autodesk,Inc. |WEB Address: www.autodesk.com
 90
      129
 91
        1
280
     0
281
     0
  0
CLASS
  1
AEC_DISP_PROPS_RAILING_MODEL
  2
AecDbDispPropsRailingModel
  3
AecArchBase70|Product Desc: Autodesk Architectural Desktop 2007 |Company: Autodesk,Inc. |WEB Address: www.autodesk.com
 90
      129
 91
        1
280
     0
281
     0
  0
CLASS
  1
AEC_DISP_REP_STAIR_MODEL
  2
AecDbDispRepStairModel
  3
AecArchBase70|Product Desc: Autodesk Architectural Desktop 2007 |Company: Autodesk,Inc. |WEB Address: www.autodesk.com
 90
      129
 91
        1
280
     0
281
     0
  0
CLASS
  1
AEC_DISP_PROPS_STAIR_MODEL
  2
AecDbDispPropsStairModel
  3
AecArchBase70|Product Desc: Autodesk Architectural Desktop 2007 |Company: Autodesk,Inc. |WEB Address: www.autodesk.com
 90
      129
 91
        1
280
     0
281
     0
  0
CLASS
  1
AEC_DISP_REP_STAIR_PLAN
  2
AecDbDispRepStairPlan
  3
AecArchBase70|Product Desc: Autodesk Architectural Desktop 2007 |Company: Autodesk,Inc. |WEB Address: www.autodesk.com
 90
      129
 91
        1
280
     0
281
     0
  0
CLASS
  1
AEC_DISP_REP_SPACE_RCP
  2
AecDbDispRepSpaceRcp
  3
AecArchBase70|Product Desc: Autodesk Architectural Desktop 2007 |Company: Autodesk,Inc. |WEB Address: www.autodesk.com
 90
      129
 91
        1
280
     0
281
     0
  0
CLASS
  1
AEC_DISP_REP_SPACE_DECOMPOSED
  2
AecDbDispRepSpaceDecomposed
  3
AecArchBase70|Product Desc: Autodesk Architectural Desktop 2007 |Company: Autodesk,Inc. |WEB Address: www.autodesk.com
 90
      129
 91
        1
280
     0
281
     0
  0
CLASS
  1
AEC_DISP_PROPS_SPACE_DECOMPOSED
  2
AecDbDispPropsSpaceDecomposed
  3
AecArchBase70|Product Desc: Autodesk Architectural Desktop 2007 |Company: Autodesk,Inc. |WEB Address: www.autodesk.com
 90
      129
 91
        1
280
     0
281
     0
  0
CLASS
  1
AEC_DISP_REP_ROOFSLAB_MODEL
  2
AecDbDispRepRoofSlabModel
  3
AecArchBase70|Product Desc: Autodesk Architectural Desktop 2007 |Company: Autodesk,Inc. |WEB Address: www.autodesk.com
 90
      129
 91
        1
280
     0
281
     0
  0
CLASS
  1
AEC_DISP_PROPS_ROOFSLAB
  2
AecDbDispPropsRoofSlab
  3
AecArchBase70|Product Desc: Autodesk Architectural Desktop 2007 |Company: Autodesk,Inc. |WEB Address: www.autodesk.com
 90
      129
 91
        1
280
     0
281
     0
  0
CLASS
  1
AEC_DISP_REP_STAIR_PLAN_100
  2
AecDbDispRepStairPlan100
  3
AecArchBase70|Product Desc: Autodesk Architectural Desktop 2007 |Company: Autodesk,Inc. |WEB Address: www.autodesk.com
 90
      129
 91
        1
280
     0
281
     0
  0
CLASS
  1
AEC_DISP_ROPS_STAIR_PLAN_100
  2
AecDbDispPropsStairPlan100
  3
AecArchBase70|Product Desc: Autodesk Architectural Desktop 2007 |Company: Autodesk,Inc. |WEB Address: www.autodesk.com
 90
      129
 91
        1
280
     0
281
     0
  0
CLASS
  1
AEC_DISP_REP_SPACE_MODEL
  2
AecDbDispRepSpaceModel
  3
AecArchBase70|Product Desc: Autodesk Architectural Desktop 2007 |Company: Autodesk,Inc. |WEB Address: www.autodesk.com
 90
      129
 91
        1
280
     0
281
     0
  0
CLASS
  1
AEC_DISP_PROPS_SPACE_MODEL
  2
AecDbDispPropsSpaceModel
  3
AecArchBase70|Product Desc: Autodesk Architectural Desktop 2007 |Company: Autodesk,Inc. |WEB Address: www.autodesk.com
 90
      129
 91
        1
280
     0
281
     0
  0
CLASS
  1
AEC_DISP_REP_SPACE_VOLUME
  2
AecDbDispRepSpaceVolume
  3
AecArchBase70|Product Desc: Autodesk Architectural Desktop 2007 |Company: Autodesk,Inc. |WEB Address: www.autodesk.com
 90
      129
 91
        1
280
     0
281
     0
  0
CLASS
  1
AEC_DISP_REP_STAIR_PLAN_50
  2
AecDbDispRepStairPlan50
  3
AecArchBase70|Product Desc: Autodesk Architectural Desktop 2007 |Company: Autodesk,Inc. |WEB Address: www.autodesk.com
 90
      129
 91
        1
280
     0
281
     0
  0
CLASS
  1
AEC_DISP_ROPS_STAIR_PLAN_50
  2
AecDbDispPropsStairPlan50
  3
AecArchBase70|Product Desc: Autodesk Architectural Desktop 2007 |Company: Autodesk,Inc. |WEB Address: www.autodesk.com
 90
      129
 91
        1
280
     0
281
     0
  0
CLASS
  1
AEC_DISP_REP_SLAB_MODEL
  2
AecDbDispRepSlabModel
  3
AecArchBase70|Product Desc: Autodesk Architectural Desktop 2007 |Company: Autodesk,Inc. |WEB Address: www.autodesk.com
 90
      129
 91
        1
280
     0
281
     0
  0
CLASS
  1
AEC_DISP_PROPS_SLAB
  2
AecDbDispPropsSlab
  3
AecArchBase70|Product Desc: Autodesk Architectural Desktop 2007 |Company: Autodesk,Inc. |WEB Address: www.autodesk.com
 90
      129
 91
        1
280
     0
281
     0
  0
CLASS
  1
AECS_DISP_REP_MEMBER_MODEL_DETAIL
  2
AecsDbDispRepMemberModelDetail
  3
AecArchBase70|Product Desc: Autodesk Architectural Desktop 2007 |Company: Autodesk,Inc. |WEB Address: www.autodesk.com
 90
      129
 91
        1
280
     0
281
     0
  0
CLASS
  1
AECS_DISP_PROPS_MEMBER
  2
AecsDbDispPropsMember
  3
AecArchBase70|Product Desc: Autodesk Architectural Desktop 2007 |Company: Autodesk,Inc. |WEB Address: www.autodesk.com
 90
      129
 91
        2
280
     0
281
     0
  0
CLASS
  1
AECS_DISP_REP_MEMBER_LOGICAL
  2
AecsDbDispRepMemberLogical
  3
AecArchBase70|Product Desc: Autodesk Architectural Desktop 2007 |Company: Autodesk,Inc. |WEB Address: www.autodesk.com
 90
      129
 91
        1
280
     0
281
     0
  0
CLASS
  1
AECS_DISP_PROPS_MEMBER_LOGICAL
  2
AecsDbDispPropsMemberLogical
  3
AecArchBase70|Product Desc: Autodesk Architectural Desktop 2007 |Company: Autodesk,Inc. |WEB Address: www.autodesk.com
 90
      129
 91
        1
280
     0
281
     0
  0
CLASS
  1
AECS_DISP_REP_MEMBER_ELEVATION_DETAIL
  2
AecsDbDispRepMemberElevationDetail
  3
AecArchBase70|Product Desc: Autodesk Architectural Desktop 2007 |Company: Autodesk,Inc. |WEB Address: www.autodesk.com
 90
      129
 91
        1
280
     0
281
     0
  0
CLASS
  1
AECS_DISP_PROPS_MEMBER_PROJECTED
  2
AecsDbDispPropsMemberProjected
  3
AecArchBase70|Product Desc: Autodesk Architectural Desktop 2007 |Company: Autodesk,Inc. |WEB Address: www.autodesk.com
 90
      129
 91
        2
280
     0
281
     0
  0
CLASS
  1
AECS_DISP_REP_MEMBER_MODEL_DESIGN
  2
AecsDbDispRepMemberModelDesign
  3
AecArchBase70|Product Desc: Autodesk Architectural Desktop 2007 |Company: Autodesk,Inc. |WEB Address: www.autodesk.com
 90
      129
 91
        1
280
     0
281
     0
  0
CLASS
  1
AECS_DISP_REP_MEMBER_ELEVATION_DESIGN
  2
AecsDbDispRepMemberElevationDesign
  3
AecArchBase70|Product Desc: Autodesk Architectural Desktop 2007 |Company: Autodesk,Inc. |WEB Address: www.autodesk.com
 90
      129
 91
        1
280
     0
281
     0
  0
CLASS
  1
AECS_DISP_REP_MEMBER_PLAN_DESIGN
  2
AecsDbDispRepMemberPlanDesign
  3
AecArchBase70|Product Desc: Autodesk Architectural Desktop 2007 |Company: Autodesk,Inc. |WEB Address: www.autodesk.com
 90
      129
 91
        1
280
     0
281
     0
  0
CLASS
  1
AECS_DISP_PROPS_MEMBER_PLAN
  2
AecsDbDispPropsMemberPlan
  3
AecArchBase70|Product Desc: Autodesk Architectural Desktop 2007 |Company: Autodesk,Inc. |WEB Address: www.autodesk.com
 90
      129
 91
        2
280
     0
281
     0
  0
CLASS
  1
AECS_DISP_REP_MEMBER_PLAN_DETAIL
  2
AecsDbDispRepMemberPlanDetail
  3
AecArchBase70|Product Desc: Autodesk Architectural Desktop 2007 |Company: Autodesk,Inc. |WEB Address: www.autodesk.com
 90
      129
 91
        1
280
     0
281
     0
  0
CLASS
  1
AECS_DISP_REP_MEMBER_PLAN_SKETCH
  2
AecsDbDispRepMemberPlanSketch
  3
AecArchBase70|Product Desc: Autodesk Architectural Desktop 2007 |Company: Autodesk,Inc. |WEB Address: www.autodesk.com
 90
      129
 91
        1
280
     0
281
     0
  0
CLASS
  1
AECS_DISP_PROPS_MEMBER_PLAN_SKETCH
  2
AecsDbDispPropsMemberPlanSketch
  3
AecArchBase70|Product Desc: Autodesk Architectural Desktop 2007 |Company: Autodesk,Inc. |WEB Address: www.autodesk.com
 90
      129
 91
        1
280
     0
281
     0
  0
CLASS
  1
AEC_DISP_REP_SCHEDULE_TABLE
  2
AecDbDispRepScheduleTable
  3
AecSchedule70|Product Desc: Autodesk Architectural Desktop 2007 |Company: Autodesk,Inc. |WEB Address: www.autodesk.com
 90
      129
 91
        1
280
     0
281
     0
  0
CLASS
  1
AEC_DISP_PROPS_SCHEDULE_TABLE
  2
AecDbDispPropsScheduleTable
  3
AecSchedule70|Product Desc: Autodesk Architectural Desktop 2007 |Company: Autodesk,Inc. |WEB Address: www.autodesk.com
 90
      129
 91
        1
280
     0
281
     0
  0
CLASS
  1
AEC_DISP_REP_SET
  2
AecDbDispRepSet
  3
AecBase70|Product Desc: Autodesk Architectural Desktop 2007 |Company: Autodesk,Inc. |WEB Address: www.autodesk.com
 90
      129
 91
       10
280
     0
281
     0
  0
CLASS
  1
AEC_DISP_REP_CONFIG
  2
AecDbDispRepConfig
  3
AecBase70|Product Desc: Autodesk Architectural Desktop 2007 |Company: Autodesk,Inc. |WEB Address: www.autodesk.com
 90
      129
 91
        2
280
     0
281
     0
  0
CLASS
  1
AEC_CLEANUP_GROUP_DEF
  2
AecDbCleanupGroupDef
  3
AecArchBase70|Product Desc: Autodesk Architectural Desktop 2007 |Company: Autodesk,Inc. |WEB Address: www.autodesk.com
 90
      129
 91
        1
280
     0
281
     0
  0
CLASS
  1
AEC_LAYERKEY_STYLE
  2
AecDbLayerKeyStyle
  3
AecBase70|Product Desc: Autodesk Architectural Desktop 2007 |Company: Autodesk,Inc. |WEB Address: www.autodesk.com
 90
      129
 91
        1
280
     0
281
     0
  0
CLASS
  1
AEC_VARS_ARCHBASE
  2
AecDbVarsArchBase
  3
AecArchBase70|Product Desc: Autodesk Architectural Desktop 2007 |Company: Autodesk,Inc. |WEB Address: www.autodesk.com
 90
      129
 91
        1
280
     0
281
     0
  0
CLASS
  1
AEC_VARS_STRUCTUREBASE
  2
AecsDbVarsStructureBase
  3
AecArchBase70|Product Desc: Autodesk Architectural Desktop 2007 |Company: Autodesk,Inc. |WEB Address: www.autodesk.com
 90
      129
 91
        1
280
     0
281
     0
  0
CLASS
  1
AEC_VARS_MUNICH
  2
AecDbVarsMunich
  3
AecArchBase70|Product Desc: Autodesk Architectural Desktop 2007 |Company: Autodesk,Inc. |WEB Address: www.autodesk.com
 90
      129
 91
        1
280
     0
281
     0
  0
CLASS
  1
BINRECORD
  2
AcAecBinRecord
  3
AecBase70|Product Desc: Autodesk Architectural Desktop 2007 |Company: Autodesk,Inc. |WEB Address: www.autodesk.com
 90
      129
 91
        1
280
     0
281
     0
  0
CLASS
  1
IMAGE
  2
AcDbRasterImage
  3
ISM
 90
     2175
 91
        0
280
     0
281
     1
  0
CLASS
  1
IMAGEDEF_REACTOR
  2
AcDbRasterImageDefReactor
  3
ISM
 90
        1
 91
        0
280
     0
281
     0
  0
CLASS
  1
IMAGEDEF
  2
AcDbRasterImageDef
  3
ISM
 90
        0
 91
        0
280
     0
281
     0
  0
CLASS
  1
RAPIDRTRENDERSETTINGS
  2
AcDbRapidRTRenderSettings
  3
ObjectDBX Classes
 90
     1024
 91
        2
280
     0
281
     0
  0
CLASS
  1
MENTALRAYRENDERSETTINGS
  2
AcDbMentalRayRenderSettings
  3
SCENEOE
 90
     1024
 91
        1
280
     0
281
     0
  0
ENDSEC
  0
SECTION
  2
TABLES
  0
TABLE
  2
VPORT
  5
8
102
{ACAD_XDICTIONARY
360
B51
102
}
330
0
100
AcDbSymbolTable
 70
     1
  0
VPORT
  5
DAB
330
8
100
AcDbSymbolTableRecord
100
AcDbViewportTableRecord
  2
*Active
 70
     0
 10
0.0
 20
0.0
 11
1.0
 21
1.0
 12
-18.57749995957387
 22
-42.75298838896232
 13
0.0
 23
0.0
 14
0.5
 24
0.5
 15
0.5
 25
0.5
 16
0.0
 26
0.0
 36
1.0
 17
0.0
 27
0.0
 37
0.0
 40
44.37256039815468
 41
2.068714632174616
 42
50.0
 43
0.0
 44
0.0
 50
0.0
 51
0.0
 71
     0
 72
  1000
 73
     1
 74
     3
 75
     0
 76
     1
 77
     0
 78
     1
281
     0
 65
     1
110
0.0
120
0.0
130
0.0
111
1.0
121
0.0
131
0.0
112
0.0
122
1.0
132
0.0
 79
     0
146
0.0
348
9F
 60
     2
 61
     5
292
     1
282
     1
141
0.0
142
0.0
 63
   250
421
  3355443
1001
ACAD_NAV_VCDISPLAY
1070
     3
  0
ENDTAB
  0
TABLE
  2
LTYPE
  5
5
330
0
100
AcDbSymbolTable
 70
     2
  0
LTYPE
  5
14
330
5
100
AcDbSymbolTableRecord
100
AcDbLinetypeTableRecord
  2
ByBlock
 70
     0
  3

 72
    65
 73
     0
 40
0.0
  0
LTYPE
  5
15
330
5
100
AcDbSymbolTableRecord
100
AcDbLinetypeTableRecord
  2
ByLayer
 70
     0
  3

 72
    65
 73
     0
 40
0.0
  0
LTYPE
  5
16
330
5
100
AcDbSymbolTableRecord
100
AcDbLinetypeTableRecord
  2
Continuous
 70
     0
  3
Solid line
 72
    65
 73
     0
 40
0.0
  0
LTYPE
  5
A610A
330
5
100
AcDbSymbolTableRecord
100
AcDbLinetypeTableRecord
  2
DASHED
 70
     0
  3
Dashed __ __ __ __ __ __ __ __ __ __ __ __ __ _
 72
    65
 73
     2
 40
0.75
 49
0.5
 74
     0
 49
-0.25
 74
     0
  0
ENDTAB
  0
TABLE
  2
LAYER
  5
2
102
{ACAD_XDICTIONARY
360
E7
102
}
330
0
100
AcDbSymbolTable
 70
    26
  0
LAYER
  5
10
102
{ACAD_XDICTIONARY
360
A6C
102
}
330
2
100
AcDbSymbolTableRecord
100
AcDbLayerTableRecord
  2
0
 70
     0
 62
     7
  6
Continuous
370
    -3
390
F
347
98
348
0
  0
LAYER
  5
9D0
330
2
100
AcDbSymbolTableRecord
100
AcDbLayerTableRecord
  2
Defpoints
 70
     0
 62
     7
  6
Continuous
290
     0
370
    -3
390
F
347
98
348
0
  0
LAYER
  5
9583E
330
2
100
AcDbSymbolTableRecord
100
AcDbLayerTableRecord
  2
HI Fitting
 70
     0
 62
     3
  6
Continuous
370
    -3
390
F
347
98
348
0
1001
AcAecLayerStandard
1000

1000

1001
AcCmTransparency
1071
        0
  0
LAYER
  5
9583F
330
2
100
AcDbSymbolTableRecord
100
AcDbLayerTableRecord
  2
HI Lateral
 70
     0
 62
     2
  6
Continuous
370
    -3
390
F
347
98
348
0
1001
AcAecLayerStandard
1000

1000

1001
AcCmTransparency
1071
        0
  0
LAYER
  5
9588B
330
2
100
AcDbSymbolTableRecord
100
AcDbLayerTableRecord
  2
HI Text
 70
     0
 62
     2
  6
Continuous
370
    -3
390
F
347
98
348
0
1001
AcAecLayerStandard
1000

1000

1001
AcCmTransparency
1071
        0
  0
LAYER
  5
9C87A
330
2
100
AcDbSymbolTableRecord
100
AcDbLayerTableRecord
  2
HI HATCH FILL
 70
     0
 62
     9
  6
Continuous
370
    -3
390
F
347
98
348
0
1001
AcAecLayerStandard
1000

1000

1001
AcCmTransparency
1071
        0
  0
LAYER
  5
9CBA3
330
2
100
AcDbSymbolTableRecord
100
AcDbLayerTableRecord
  2
HI Product Outline
 70
     0
 62
     5
  6
Continuous
370
    -3
390
F
347
98
348
0
1001
AcAecLayerStandard
1000

1000

1001
AcCmTransparency
1071
        0
  0
LAYER
  5
9CBA6
330
2
100
AcDbSymbolTableRecord
100
AcDbLayerTableRecord
  2
HI Lateral Detail
 70
     0
 62
   249
  6
Continuous
370
    -3
390
F
347
98
348
0
1001
AcAecLayerStandard
1000

1000

1001
AcCmTransparency
1071
        0
  0
LAYER
  5
9CBA7
330
2
100
AcDbSymbolTableRecord
100
AcDbLayerTableRecord
  2
HI Deatil 1
 70
     0
 62
     2
  6
Continuous
370
    -3
390
F
347
98
348
0
1001
AcAecLayerStandard
1000

1000

1001
AcCmTransparency
1071
        0
  0
LAYER
  5
9CBA8
330
2
100
AcDbSymbolTableRecord
100
AcDbLayerTableRecord
  2
HI Deatil 2
 70
     0
 62
     1
  6
Continuous
370
    -3
390
F
347
98
348
0
1001
AcAecLayerStandard
1000

1000

1001
AcCmTransparency
1071
        0
  0
LAYER
  5
9CBA9
330
2
100
AcDbSymbolTableRecord
100
AcDbLayerTableRecord
  2
HI Detail 3
 70
     0
 62
   249
  6
Continuous
370
    -3
390
F
347
98
348
0
1001
AcAecLayerStandard
1000

1000

1001
AcCmTransparency
1071
        0
  0
LAYER
  5
9CBAB
330
2
100
AcDbSymbolTableRecord
100
AcDbLayerTableRecord
  2
HI Dimensions
 70
     0
 62
     1
  6
Continuous
370
    -3
390
F
347
98
348
0
1001
AcAecLayerStandard
1000

1000

1001
AcCmTransparency
1071
        0
  0
LAYER
  5
9EC2B
102
{ACAD_XDICTIONARY
360
9EC2C
102
}
330
2
100
AcDbSymbolTableRecord
100
AcDbLayerTableRecord
  2
L-dtl-htch
 70
     0
 62
   212
  6
Continuous
370
     0
390
F
347
98
348
0
1001
AcAecLayerStandard
1000

1000

  0
LAYER
  5
A0E56
330
2
100
AcDbSymbolTableRecord
100
AcDbLayerTableRecord
  2
HI Building Wall
 70
     0
 62
     6
  6
Continuous
370
    25
390
F
347
98
348
0
1001
AcAecLayerStandard
1000

1000

1001
AcCmTransparency
1071
        0
  0
LAYER
  5
A1F94
330
2
100
AcDbSymbolTableRecord
100
AcDbLayerTableRecord
  2
HI Text2
 70
     0
 62
     1
  6
Continuous
370
    -3
390
F
347
98
348
0
1001
AcAecLayerStandard
1000

1000

1001
AcCmTransparency
1071
        0
  0
LAYER
  5
A21B7
330
2
100
AcDbSymbolTableRecord
100
AcDbLayerTableRecord
  2
HI No Print
 70
     0
 62
     7
  6
Continuous
290
     0
370
    -3
390
F
347
98
348
0
1001
AcAecLayerStandard
1000

1000

1001
AcCmTransparency
1071
        0
  0
LAYER
  5
A610B
330
2
100
AcDbSymbolTableRecord
100
AcDbLayerTableRecord
  2
D-OBJECT
 70
     0
 62
     2
  6
Continuous
370
    -3
390
F
347
98
348
0
1001
AcAecLayerStandard
1000

1000

1001
AcCmTransparency
1071
        0
  0
LAYER
  5
A610C
330
2
100
AcDbSymbolTableRecord
100
AcDbLayerTableRecord
  2
D-OBJECT LIGHT
 70
     0
 62
     4
  6
Continuous
370
    -3
390
F
347
98
348
0
1001
AcAecLayerStandard
1000

1000

1001
AcCmTransparency
1071
        0
  0
LAYER
  5
A610D
330
2
100
AcDbSymbolTableRecord
100
AcDbLayerTableRecord
  2
D-OBJECT HEAVY
 70
     0
 62
     3
  6
Continuous
370
    -3
390
F
347
98
348
0
1001
AcAecLayerStandard
1000

1000

1001
AcCmTransparency
1071
        0
  0
LAYER
  5
A610E
330
2
100
AcDbSymbolTableRecord
100
AcDbLayerTableRecord
  2
D-TEXT
 70
     0
 62
     2
  6
Continuous
370
    -3
390
F
347
98
348
0
1001
AcAecLayerStandard
1000

1000

1001
AcCmTransparency
1071
        0
  0
LAYER
  5
A610F
330
2
100
AcDbSymbolTableRecord
100
AcDbLayerTableRecord
  2
D-LEADER
 70
     0
 62
     2
  6
Continuous
370
    -3
390
F
347
98
348
0
1001
AcAecLayerStandard
1000

1000

1001
AcCmTransparency
1071
        0
  0
LAYER
  5
A6110
330
2
100
AcDbSymbolTableRecord
100
AcDbLayerTableRecord
  2
D-HATCH
 70
     0
 62
     1
  6
Continuous
370
    -3
390
F
347
98
348
0
1001
AcAecLayerStandard
1000

1000

1001
AcCmTransparency
1071
        0
  0
LAYER
  5
A6111
330
2
100
AcDbSymbolTableRecord
100
AcDbLayerTableRecord
  2
D-DASHED LIGHT
 70
     0
 62
     4
  6
DASHED
370
    -3
390
F
347
98
348
0
1001
AcAecLayerStandard
1000

1000

1001
AcCmTransparency
1071
        0
  0
LAYER
  5
A6112
330
2
100
AcDbSymbolTableRecord
100
AcDbLayerTableRecord
  2
D-HATCH SCREENED
 70
     0
 62
     8
  6
Continuous
370
    -3
390
F
347
98
348
0
1001
AcAecLayerStandard
1000

1000

1001
AcCmTransparency
1071
        0
  0
LAYER
  5
AB757
330
2
100
AcDbSymbolTableRecord
100
AcDbLayerTableRecord
  2
D-PLANTS
 70
     0
 62
     4
  6
Continuous
370
    -3
390
F
347
98
348
0
1001
AcAecLayerStandard
1000

1000

1001
AcCmTransparency
1071
        0
  0
LAYER
  5
AC3F7
102
{ACAD_XDICTIONARY
360
AC3F8
102
}
330
2
100
AcDbSymbolTableRecord
100
AcDbLayerTableRecord
  2
C-DIM
 70
     0
 62
     2
  6
Continuous
370
    -3
390
F
347
98
348
0
  0
ENDTAB
  0
TABLE
  2
STYLE
  5
3
330
0
100
AcDbSymbolTable
 70
     6
  0
STYLE
  5
11
330
3
100
AcDbSymbolTableRecord
100
AcDbTextStyleTableRecord
  2
Standard
 70
     0
 40
0.0
 41
1.0
 50
0.0
 71
     0
 42
12.10402048440558
  3
arial.ttf
  4

1001
ACAD
1000
Arial
1071
       34
  0
STYLE
  5
1BACD
330
3
100
AcDbSymbolTableRecord
100
AcDbTextStyleTableRecord
  2
DIMS
 70
     0
 40
0.0
 41
1.0
 50
0.0
 71
     0
 42
0.2
  3
arial.ttf
  4

1001
ACAD
1000
Arial
1071
       34
  0
STYLE
  5
5DCD6
330
3
100
AcDbSymbolTableRecord
100
AcDbTextStyleTableRecord
  2
Hunter
 70
     0
 40
0.0
 41
0.7
 50
0.0
 71
     0
 42
0.09375
  3
romans.shx
  4

  0
STYLE
  5
78DB5
330
3
100
AcDbSymbolTableRecord
100
AcDbTextStyleTableRecord
  2
STYLE1
 70
     0
 40
0.0
 41
1.0
 50
0.0
 71
     0
 42
0.2
  3
txt
  4

  0
STYLE
  5
A6113
330
3
100
AcDbSymbolTableRecord
100
AcDbTextStyleTableRecord
  2
romand
 70
     0
 40
0.25
 41
1.0
 50
0.0
 71
     0
 42
0.25
  3
romand.shx
  4

  0
ENDTAB
  0
TABLE
  2
VIEW
  5
6
330
0
100
AcDbSymbolTable
 70
     6
  0
ENDTAB
  0
TABLE
  2
UCS
  5
7
330
0
100
AcDbSymbolTable
 70
     0
  0
ENDTAB
  0
TABLE
  2
APPID
  5
9
330
0
100
AcDbSymbolTable
 70
    17
  0
APPID
  5
12
330
9
100
AcDbSymbolTableRecord
100
AcDbRegAppTableRecord
  2
ACAD
 70
     0
  0
APPID
  5
BE
330
9
100
AcDbSymbolTableRecord
100
AcDbRegAppTableRecord
  2
ACAD_PSEXT
 70
     0
  0
APPID
  5
DBF
330
9
100
AcDbSymbolTableRecord
100
AcDbRegAppTableRecord
  2
AcAecLayerStandard
 70
     0
  0
APPID
  5
FEF2
330
9
100
AcDbSymbolTableRecord
100
AcDbRegAppTableRecord
  2
ACAD_DSTYLE_DIMJOGGED_JOGANGLE_SYMBOL
 70
     0
  0
APPID
  5
1BACF
330
9
100
AcDbSymbolTableRecord
100
AcDbRegAppTableRecord
  2
ACAD_DSTYLE_DIMJAG
 70
     0
  0
APPID
  5
1BAD0
330
9
100
AcDbSymbolTableRecord
100
AcDbRegAppTableRecord
  2
ACAD_DSTYLE_DIMTALN
 70
     0
  0
APPID
  5
5B55B
330
9
100
AcDbSymbolTableRecord
100
AcDbRegAppTableRecord
  2
ACAD_NAV_VCDISPLAY
 70
     0
  0
APPID
  5
5C537
330
9
100
AcDbSymbolTableRecord
100
AcDbRegAppTableRecord
  2
AEC_OBJVER_INFO
 70
     0
  0
APPID
  5
95767
330
9
100
AcDbSymbolTableRecord
100
AcDbRegAppTableRecord
  2
AcCmTransparency
 70
     0
  0
APPID
  5
9C807
330
9
100
AcDbSymbolTableRecord
100
AcDbRegAppTableRecord
  2
AEC_XDATA_BOUND_SPACE
 70
     0
  0
APPID
  5
9C925
330
9
100
AcDbSymbolTableRecord
100
AcDbRegAppTableRecord
  2
GradientColor1ACI
 70
     0
  0
APPID
  5
9C926
330
9
100
AcDbSymbolTableRecord
100
AcDbRegAppTableRecord
  2
GradientColor2ACI
 70
     0
  0
APPID
  5
A0A0A
330
9
100
AcDbSymbolTableRecord
100
AcDbRegAppTableRecord
  2
ACAD_MLEADERVER
 70
     0
  0
APPID
  5
A0A2C
330
9
100
AcDbSymbolTableRecord
100
AcDbRegAppTableRecord
  2
ManulPointsAssociative
 70
     0
  0
APPID
  5
A0A2D
330
9
100
AcDbSymbolTableRecord
100
AcDbRegAppTableRecord
  2
LandFX
 70
     0
  0
APPID
  5
A0DDB
330
9
100
AcDbSymbolTableRecord
100
AcDbRegAppTableRecord
  2
ACAD_EXEMPT_FROM_CAD_STANDARDS
 70
     0
  0
APPID
  5
A3AA6
330
9
100
AcDbSymbolTableRecord
100
AcDbRegAppTableRecord
  2
ACAD_DSTYLE_DIMRADIAL_EXTENSION
 70
     0
  0
ENDTAB
  0
TABLE
  2
DIMSTYLE
  5
A
330
0
100
AcDbSymbolTable
 70
     4
100
AcDbDimStyleTable
 71
     3
340
9EC41
340
1BACE
340
27
  0
DIMSTYLE
105
27
330
A
100
AcDbSymbolTableRecord
100
AcDbDimStyleTableRecord
  2
Standard
 70
     0
340
11
  0
DIMSTYLE
105
1BACE
330
A
100
AcDbSymbolTableRecord
100
AcDbDimStyleTableRecord
  2
LandMatters
 70
     0
 41
0.125
 49
0.18
 73
     0
 74
     0
140
0.125
141
0.0750000000000001
147
0.095
174
     1
176
     2
177
     2
178
     2
271
     3
272
     3
277
     4
279
     1
289
     1
340
1BACD
342
1BAAE
1001
ACAD_DSTYLE_DIMJOGGED_JOGANGLE_SYMBOL
1070
   384
1040
0.7853981633974483
1001
ACAD_DSTYLE_DIMJAG
1070
   388
1040
1.5
1001
ACAD_DSTYLE_DIMTALN
1070
   392
1070
     0
  0
DIMSTYLE
105
9EC41
330
A
100
AcDbSymbolTableRecord
100
AcDbDimStyleTableRecord
  2
HUNTER-1.5INCH
 70
     0
 41
1.0
 42
0.05
 43
0.505
 44
0.675
 46
0.675
 73
     0
 74
     0
 78
     3
140
1.0
144
0.9999999999999998
147
0.04
172
     1
176
   256
177
   256
178
   256
271
     0
272
     0
277
     4
279
     2
289
     1
340
5DCD6
341
9EC11
342
1BAAE
371
    -1
  0
ENDTAB
  0
TABLE
  2
BLOCK_RECORD
  5
1
330
0
100
AcDbSymbolTable
 70
     6
  0
BLOCK_RECORD
  5
1F
102
{ACAD_XDICTIONARY
360
A62
102
}
330
1
100
AcDbSymbolTableRecord
100
AcDbBlockTableRecord
  2
*Model_Space
340
22
 70
     0
280
     1
281
     0
  0
BLOCK_RECORD
  5
A21B8
330
1
100
AcDbSymbolTableRecord
100
AcDbBlockTableRecord
  2
*Paper_Space
340
A21B9
 70
     0
280
     1
281
     0
  0
BLOCK_RECORD
  5
1BAAE
330
1
100
AcDbSymbolTableRecord
100
AcDbBlockTableRecord
  2
_ARCHTICK
340
0
102
{BLKREFS
102
}
 70
     0
280
     1
281
     0
  0
BLOCK_RECORD
  5
9EC11
330
1
100
AcDbSymbolTableRecord
100
AcDbBlockTableRecord
  2
_Open90
340
0
 70
     0
280
     1
281
     0
  0
BLOCK_RECORD
  5
A024C
330
1
100
AcDbSymbolTableRecord
100
AcDbBlockTableRecord
  2
_Integral
340
0
 70
     0
280
     1
281
     0
  0
BLOCK_RECORD
  5
A21A0
330
1
100
AcDbSymbolTableRecord
100
AcDbBlockTableRecord
  2
*Paper_Space3
340
A21A1
 70
     0
280
     1
281
     0
  0
BLOCK_RECORD
  5
A3B49
330
1
100
AcDbSymbolTableRecord
100
AcDbBlockTableRecord
  2
_FILLED
340
0
 70
     0
280
     1
281
     0
  0
ENDTAB
  0
ENDSEC
  0
SECTION
  2
BLOCKS
  0
BLOCK
  5
20
330
1F
100
AcDbEntity
  8
0
100
AcDbBlockBegin
  2
*Model_Space
 70
     0
 10
0.0
 20
0.0
 30
0.0
  3
*Model_Space
  1

  0
ENDBLK
  5
21
330
1F
100
AcDbEntity
  8
0
100
AcDbBlockEnd
  0
BLOCK
  5
A21BA
330
A21B8
100
AcDbEntity
 67
     1
  8
0
100
AcDbBlockBegin
  2
*Paper_Space
 70
     0
 10
0.0
 20
0.0
 30
0.0
  3
*Paper_Space
  1

  0
ENDBLK
  5
A21BB
330
A21B8
100
AcDbEntity
 67
     1
  8
0
100
AcDbBlockEnd
  0
BLOCK
  5
1BAAF
330
1BAAE
100
AcDbEntity
  8
0
100
AcDbBlockBegin
  2
_ARCHTICK
 70
     0
 10
0.0
 20
0.0
 30
0.0
  3
_ARCHTICK
  1

  0
LWPOLYLINE
  5
1BAB0
330
1BAAE
100
AcDbEntity
  8
0
  6
ByBlock
 62
     0
100
AcDbPolyline
 90
        2
 70
     0
 43
0.15
 10
-0.5
 20
-0.5
 10
0.5
 20
0.5
  0
ENDBLK
  5
1BAB1
330
1BAAE
100
AcDbEntity
  8
0
100
AcDbBlockEnd
  0
BLOCK
  5
9EC12
330
9EC11
100
AcDbEntity
  8
0
100
AcDbBlockBegin
  2
_Open90
 70
     0
 10
0.0
 20
0.0
 30
0.0
  3
_Open90
  1

  0
LINE
  5
9EC13
330
9EC11
100
AcDbEntity
  8
L-dtl-htch
 62
     0
370
    -2
100
AcDbLine
 10
-0.5
 20
0.5
 30
0.0
 11
0.0
 21
0.0
 31
0.0
  0
LINE
  5
9EC14
330
9EC11
100
AcDbEntity
  8
L-dtl-htch
 62
     0
370
    -2
100
AcDbLine
 10
0.0
 20
0.0
 30
0.0
 11
-0.5
 21
-0.5
 31
0.0
  0
LINE
  5
9EC15
330
9EC11
100
AcDbEntity
  8
L-dtl-htch
 62
     0
370
    -2
100
AcDbLine
 10
0.0
 20
0.0
 30
0.0
 11
-1.0
 21
0.0
 31
0.0
  0
ENDBLK
  5
9EC16
330
9EC11
100
AcDbEntity
  8
0
100
AcDbBlockEnd
  0
BLOCK
  5
A024F
330
A024C
100
AcDbEntity
  8
0
100
AcDbBlockBegin
  2
_Integral
 70
     0
 10
0.0
 20
0.0
 30
0.0
  3
_Integral
  1

  0
ARC
  5
A024D
330
A024C
100
AcDbEntity
  8
0
  6
ByBlock
 62
     0
370
    -2
100
AcDbCircle
 10
0.44488802
 20
-0.09133463
 30
0.0
 40
0.4541666700000001
100
AcDbArc
 50
101.9999999980395
 51
167.9999999799193
  0
ARC
  5
A024E
330
A024C
100
AcDbEntity
  8
0
  6
ByBlock
 62
     0
370
    -2
100
AcDbCircle
 10
-0.44488802
 20
0.09133463
 30
0.0
 40
0.4541666700000001
100
AcDbArc
 50
282.0000000215427
 51
348.0000000034225
  0
ENDBLK
  5
A0250
330
A024C
100
AcDbEntity
  8
0
100
AcDbBlockEnd
  0
BLOCK
  5
A21A2
330
A21A0
100
AcDbEntity
 67
     1
  8
0
100
AcDbBlockBegin
  2
*Paper_Space3
 70
     0
 10
0.0
 20
0.0
 30
0.0
  3
*Paper_Space3
  1

  0
VIEWPORT
  5
A21AE
102
{ACAD_XDICTIONARY
360
A21AF
102
}
330
A21A0
100
AcDbEntity
 67
     1
  8
0
100
AcDbViewport
 10
6.184077046826073
 20
4.530759933994802
 30
0.0
 40
22.46659589189608
 41
10.86017159760666
 68
     1
 69
     1
 12
6.184077046826073
 22
4.530759933994802
 13
0.0
 23
0.0
 14
0.5
 24
0.5
 15
0.5
 25
0.5
 16
0.0
 26
0.0
 36
1.0
 17
0.0
 27
0.0
 37
0.0
 42
50.0
 43
0.0
 44
0.0
 45
10.86017159760666
 50
0.0
 51
0.0
 72
  1000
 90
   819232
  1

281
     0
 71
     1
 74
     0
110
0.0
120
0.0
130
0.0
111
1.0
121
0.0
131
0.0
112
0.0
122
1.0
132
0.0
 79
     0
146
0.0
170
     0
 61
     5
348
9F
292
     1
282
     1
141
0.0
142
0.0
 63
   250
421
  3355443
  0
VIEWPORT
  5
A21B2
102
{ACAD_XDICTIONARY
360
A21B3
102
}
330
A21A0
100
AcDbEntity
 67
     1
  8
HI No Print
100
AcDbViewport
 10
4.807258931670588
 20
4.0197692194672
 30
0.0
 40
9.521960265855952
 41
7.958251408262441
 68
     2
 69
     2
 12
75.23882479901596
 22
16.53594728339403
 13
0.0
 23
0.0
 14
0.5
 24
0.5
 15
0.5
 25
0.5
 16
0.0
 26
0.0
 36
178.3294139684135
 17
-100.2903367760448
 27
-56.40334146147367
 37
0.0
 42
50.0
 43
0.0
 44
0.0
 45
47.49036514785224
 50
0.0
 51
0.0
 72
  1000
 90
   557664
  1

281
     0
 71
     1
 74
     0
110
0.0
120
0.0
130
0.0
111
1.0
121
0.0
131
0.0
112
0.0
122
1.0
132
0.0
 79
     0
146
0.0
170
     0
 61
     5
348
9F
292
     1
282
     1
141
0.0
142
0.0
 63
   250
421
  3355443
  0
ENDBLK
  5
A21A3
330
A21A0
100
AcDbEntity
 67
     1
  8
0
100
AcDbBlockEnd
  0
BLOCK
  5
A3B4A
330
A3B49
100
AcDbEntity
  8
0
100
AcDbBlockBegin
  2
_FILLED
 70
     0
 10
0.0
 20
0.0
 30
0.0
  3
_FILLED
  1

  0
SOLID
  5
A3B4B
330
A3B49
100
AcDbEntity
  8
0
  6
ByBlock
 62
     0
100
AcDbTrace
 10
0.0
 20
0.0
 30
0.0
 11
-1.0
 21
0.16875
 31
0.0
 12
-1.0
 22
-0.16875
 32
0.0
 13
-1.0
 23
-0.16875
 33
0.0
  0
ENDBLK
  5
A3B4C
330
A3B49
100
AcDbEntity
  8
0
  6
ByBlock
 62
     0
100
AcDbBlockEnd
  0
ENDSEC
  0
SECTION
  2
ENTITIES
  0
HATCH
  5
AC549
330
1F
100
AcDbEntity
  8
HI HATCH FILL
100
AcDbHatch
 10
0.0
 20
0.0
 30
0.0
210
0.0
220
0.0
230
1.0
  2
AR-SAND
 70
     0
 71
     0
 91
        1
 92
        1
 93
      105
 72
     1
 10
-25.41904142096456
 20
-34.78617051051293
 11
-23.24566197058945
 21
-34.78617051051293
 72
     1
 10
-23.24566197058945
 20
-34.78617051051293
 11
-23.24566197058945
 21
-37.23247565977349
 72
     1
 10
-23.24566197058945
 20
-37.23247565977349
 11
-18.08904142096456
 21
-37.23247565977349
 72
     1
 10
-18.08904142096456
 20
-37.23247565977349
 11
-18.08904142096457
 21
-37.86797356516834
 72
     1
 10
-18.08904142096457
 20
-37.86797356516834
 11
-19.23440041605394
 21
-38.82904387551342
 72
     1
 10
-19.23440041605394
 20
-38.82904387551342
 11
-18.66172091850926
 21
-39.30957903068595
 72
     1
 10
-18.66172091850926
 20
-39.30957903068595
 11
-19.86109999127967
 21
-39.49763119432407
 72
     1
 10
-19.86109999127967
 20
-39.49763119432407
 11
-21.6157391590105
 21
-39.55795076814871
 72
     1
 10
-21.6157391590105
 20
-39.55795076814871
 11
-22.67750697423048
 21
-39.42405277252169
 72
     1
 10
-22.67750697423048
 20
-39.42405277252169
 11
-23.24566197058945
 21
-39.35879078080254
 72
     1
 10
-23.24566197058945
 20
-39.35879078080254
 11
-23.31858765386539
 21
-39.34612878731997
 72
     1
 10
-23.31858765386539
 20
-39.34612878731997
 11
-23.70251447586795
 21
-39.3576419504586
 72
     1
 10
-23.70251447586795
 20
-39.3576419504586
 11
-23.90453635959332
 21
-39.35424417030484
 72
     1
 10
-23.90453635959332
 20
-39.35424417030484
 11
-24.17898190947223
 21
-39.398416294378
 72
     1
 10
-24.17898190947223
 20
-39.398416294378
 11
-24.30041826699517
 21
-39.41540578439134
 72
     1
 10
-24.30041826699517
 20
-39.41540578439134
 11
-24.39243929602528
 21
-39.40136803309808
 72
     1
 10
-24.39243929602528
 20
-39.40136803309808
 11
-24.29333397502855
 21
-39.24142946103534
 72
     1
 10
-24.29333397502855
 20
-39.24142946103534
 11
-24.3200162224156
 21
-39.01294558297649
 72
     1
 10
-24.3200162224156
 20
-39.01294558297649
 11
-24.38862746174939
 21
-38.81873447673108
 72
     1
 10
-24.38862746174939
 20
-38.81873447673108
 11
-24.52203810614108
 21
-38.67402827409994
 72
     1
 10
-24.52203810614108
 20
-38.67402827409994
 11
-24.73549549269412
 21
-38.61690730458524
 72
     1
 10
-24.73549549269412
 20
-38.61690730458524
 11
-24.92227063186001
 21
-38.63213943638611
 72
     1
 10
-24.92227063186001
 20
-38.63213943638611
 11
-25.0976108607422
 21
-38.72353294008347
 72
     1
 10
-25.0976108607422
 20
-38.72353294008347
 11
-25.22720967085799
 21
-38.83396684616268
 72
     1
 10
-25.22720967085799
 20
-38.83396684616268
 11
-25.29582091019179
 21
-39.00532951707605
 72
     1
 10
-25.29582091019179
 20
-39.00532951707605
 11
-25.29963274446757
 21
-39.2185810257033
 72
     1
 10
-25.29963274446757
 20
-39.2185810257033
 11
-25.22720967085799
 21
-39.37851959776605
 72
     1
 10
-25.22720967085799
 20
-39.37851959776605
 11
-25.19343718804464
 21
-39.45810617213914
 72
     1
 10
-25.19343718804464
 20
-39.45810617213914
 11
-25.48365611021873
 21
-39.46970422402426
 72
     1
 10
-25.48365611021873
 20
-39.46970422402426
 11
-25.99061703294231
 21
-39.45066405927314
 72
     1
 10
-25.99061703294231
 20
-39.45066405927314
 11
-26.61955428231752
 21
-39.45828012517358
 72
     1
 10
-26.61955428231752
 20
-39.45828012517358
 11
-27.24973291095718
 21
-39.45816344846979
 72
     1
 10
-27.24973291095718
 20
-39.45816344846979
 11
-27.40601456100389
 21
-39.44673934961917
 72
     1
 10
-27.40601456100389
 20
-39.44673934961917
 11
-27.62328378183272
 21
-39.4695877849512
 72
     1
 10
-27.62328378183272
 20
-39.4695877849512
 11
-27.84581619597719
 21
-39.44195164157049
 72
     1
 10
-27.84581619597719
 20
-39.44195164157049
 11
-28.03686754056827
 21
-39.40830047789601
 72
     1
 10
-28.03686754056827
 20
-39.40830047789601
 11
-28.27064327600619
 21
-39.39531843967049
 72
     1
 10
-28.27064327600619
 20
-39.39531843967049
 11
-28.53905263432063
 21
-39.45590161208099
 72
     1
 10
-28.53905263432063
 20
-39.45590161208099
 11
-28.84425970903357
 21
-39.45157420053419
 72
     1
 10
-28.84425970903357
 20
-39.45157420053419
 11
-29.35726770835328
 21
-39.40397306634921
 72
     1
 10
-29.35726770835328
 20
-39.40397306634921
 11
-29.80966686763906
 21
-39.40180955699066
 72
     1
 10
-29.80966686763906
 20
-39.40180955699066
 11
-29.95902385838633
 21
-39.36286304948442
 72
     1
 10
-29.95902385838633
 20
-39.36286304948442
 11
-30.29315770402007
 21
-39.41556488040408
 72
     1
 10
-30.29315770402007
 20
-39.41556488040408
 11
-30.79650936039008
 21
-39.40038378173566
 72
     1
 10
-30.79650936039008
 20
-39.40038378173566
 11
-31.34976275420337
 21
-39.37869663821994
 72
     1
 10
-31.34976275420337
 20
-39.37869663821994
 11
-31.73868298759785
 21
-39.36252585937517
 72
     1
 10
-31.73868298759785
 20
-39.36252585937517
 11
-32.10461018992171
 21
-39.39299036060764
 72
     1
 10
-32.10461018992171
 20
-39.39299036060764
 11
-32.48959597108105
 21
-39.43107092774049
 72
     1
 10
-32.48959597108105
 20
-39.43107092774049
 11
-33.46158882458135
 21
-39.47676779840456
 72
     1
 10
-33.46158882458135
 20
-39.47676779840456
 11
-33.31293143563007
 21
-39.34729348994357
 72
     1
 10
-33.31293143563007
 20
-39.34729348994357
 11
-33.23288469346883
 21
-39.19497098378121
 72
     1
 10
-33.23288469346883
 20
-39.19497098378121
 11
-33.22144919064126
 21
-39.02741634581808
 72
     1
 10
-33.22144919064126
 20
-39.02741634581808
 11
-33.27481368541546
 21
-38.84843737137349
 72
     1
 10
-33.27481368541546
 20
-38.84843737137349
 11
-33.38154267496386
 21
-38.70373116874235
 72
     1
 10
-33.38154267496386
 20
-38.70373116874235
 11
-33.57594089013767
 21
-38.59329726266314
 72
     1
 10
-33.57594089013767
 20
-38.59329726266314
 11
-33.76652786357933
 21
-38.57044882733111
 72
     1
 10
-33.76652786357933
 20
-38.57044882733111
 11
-33.96939767748497
 21
-38.63618082274392
 72
     1
 10
-33.96939767748497
 20
-38.63618082274392
 11
-34.09518524586874
 21
-38.75042252414259
 72
     1
 10
-34.09518524586874
 20
-38.75042252414259
 11
-34.21334914570084
 21
-38.93701756448756
 72
     1
 10
-34.21334914570084
 20
-38.93701756448756
 11
-34.21716097997673
 21
-39.10457244008153
 72
     1
 10
-34.21716097997673
 20
-39.10457244008153
 11
-34.15617281665086
 21
-39.31401567812775
 72
     1
 10
-34.15617281665086
 20
-39.31401567812775
 11
-33.96939767748497
 21
-39.46253015133986
 72
     1
 10
-33.96939767748497
 20
-39.46253015133986
 11
-34.96184040266692
 21
-39.46246860497267
 72
     1
 10
-34.96184040266692
 20
-39.46246860497267
 11
-35.38113150722122
 21
-39.41677197193938
 72
     1
 10
-35.38113150722122
 20
-39.41677197193938
 11
-36.04291324049342
 21
-39.28057269924548
 72
     1
 10
-36.04291324049342
 20
-39.28057269924548
 11
-36.90974687372256
 21
-39.27358504523366
 72
     1
 10
-36.90974687372256
 20
-39.27358504523366
 11
-37.99678453984962
 21
-39.22467127073608
 72
     1
 10
-37.99678453984962
 20
-39.22467127073608
 11
-38.79021696422149
 21
-39.24214040576564
 72
     1
 10
-38.79021696422149
 20
-39.24214040576564
 11
-39.44686778846051
 21
-39.29758556262365
 72
     1
 10
-39.44686778846051
 20
-39.29758556262365
 11
-39.4512678952479
 21
-39.50210486191691
 72
     1
 10
-39.4512678952479
 20
-39.50210486191691
 11
-40.38152510044462
 21
-39.43897571501593
 72
     1
 10
-40.38152510044462
 20
-39.43897571501593
 11
-41.34208304366111
 21
-39.43897571501593
 72
     1
 10
-41.34208304366111
 20
-39.43897571501593
 11
-42.38764984337501
 21
-39.5167130185246
 72
     1
 10
-42.38764984337501
 20
-39.5167130185246
 11
-42.31447764185897
 21
-39.41330588965472
 72
     1
 10
-42.31447764185897
 20
-39.41330588965472
 11
-42.22394879984689
 21
-39.28954374943435
 72
     1
 10
-42.22394879984689
 20
-39.28954374943435
 11
-42.18106699746729
 21
-39.08010051138813
 72
     1
 10
-42.18106699746729
 20
-39.08010051138813
 11
-42.18821366825866
 21
-38.92539789552039
 72
     1
 10
-42.18821366825866
 20
-38.92539789552039
 11
-42.22871344455577
 21
-38.83019635887278
 72
     1
 10
-42.22871344455577
 20
-38.83019635887278
 11
-42.3216249051941
 21
-38.69929412716691
 72
     1
 10
-42.3216249051941
 20
-38.69929412716691
 11
-42.45503554958579
 21
-38.62075288319572
 72
     1
 10
-42.45503554958579
 20
-38.62075288319572
 11
-42.64800514165394
 21
-38.59695249903386
 72
     1
 10
-42.64800514165394
 20
-38.59695249903386
 11
-42.82906223313411
 21
-38.62789297468122
 72
     1
 10
-42.82906223313411
 20
-38.62789297468122
 11
-42.99820860165791
 21
-38.75165511490159
 72
     1
 10
-42.99820860165791
 20
-38.75165511490159
 11
-43.098477678681
 21
-38.93107536966993
 72
     1
 10
-43.098477678681
 20
-38.93107536966993
 11
-43.14850674439585
 21
-39.0429371989939
 72
     1
 10
-43.14850674439585
 20
-39.0429371989939
 11
-43.11038899418124
 21
-39.24524034555468
 72
     1
 10
-43.11038899418124
 20
-39.24524034555468
 11
-42.95966291308326
 21
-39.50113948302473
 72
     1
 10
-42.95966291308326
 20
-39.50113948302473
 11
-43.36697164386191
 21
-39.50781385538181
 72
     1
 10
-43.36697164386191
 20
-39.50781385538181
 11
-44.21942661065048
 21
-39.48111616953864
 72
     1
 10
-44.21942661065048
 20
-39.48111616953864
 11
-44.88767195397509
 21
-39.5180637633143
 72
     1
 10
-44.88767195397509
 20
-39.5180637633143
 11
-45.45269253577859
 21
-39.51346582976809
 72
     1
 10
-45.45269253577859
 20
-39.51346582976809
 11
-45.73475710773084
 21
-39.55343390756519
 72
     1
 10
-45.73475710773084
 20
-39.55343390756519
 11
-46.59805153086796
 21
-38.82904387551342
 72
     1
 10
-46.59805153086796
 20
-38.82904387551342
 11
-45.45269253577859
 21
-37.86797356516834
 72
     1
 10
-45.45269253577859
 20
-37.86797356516834
 11
-45.45269253577858
 21
-37.23247565977342
 72
     1
 10
-45.45269253577858
 20
-37.23247565977342
 11
-40.29607198615368
 21
-37.23247565977342
 72
     1
 10
-40.29607198615368
 20
-37.23247565977342
 11
-40.29607198615368
 21
-34.78617051051293
 72
     1
 10
-40.29607198615368
 20
-34.78617051051293
 11
-38.12269253577857
 21
-34.78617051051293
 72
     1
 10
-38.12269253577857
 20
-34.78617051051293
 11
-38.12269253577858
 21
-37.23247565977342
 72
     1
 10
-38.12269253577858
 20
-37.23247565977342
 11
-32.96607198615369
 21
-37.23247565977342
 72
     1
 10
-32.96607198615369
 20
-37.23247565977342
 11
-32.96607198615369
 21
-34.78617051051293
 72
     1
 10
-32.96607198615369
 20
-34.78617051051293
 11
-30.57566197058943
 21
-34.78617051051293
 72
     1
 10
-30.57566197058943
 20
-34.78617051051293
 11
-30.57566197058945
 21
-37.23247565977342
 72
     1
 10
-30.57566197058945
 20
-37.23247565977342
 11
-25.41904142096457
 21
-37.23247565977342
 72
     1
 10
-25.41904142096457
 20
-37.23247565977342
 11
-25.41904142096456
 21
-34.78617051051293
 97
        0
 75
     1
 76
     1
 52
0.0
 41
0.25
 77
     0
 78
     4
 53
37.5
 43
-67.00715323745348
 44
-57.69198542186306
 45
-0.0157483395274021
 46
0.4817059422532897
 79
     6
 49
0.0
 49
-0.38
 49
0.0
 49
-0.425
 49
0.0
 49
-0.40625
 53
7.499999999999999
 43
-67.00715323745348
 44
-57.69198542186306
 45
0.4424441763169318
 46
0.7055365163074351
 79
     6
 49
0.0
 49
-0.205
 49
0.0
 49
-0.3425
 49
0.0
 49
-0.13125
 53
327.5
 43
-67.31465323745347
 44
-57.69198542186306
 45
0.7785354654378738
 46
0.0014147633842412
 79
     6
 49
0.0
 49
-0.125
 49
0.0
 49
-0.45
 49
0.0
 49
-0.5875
 53
317.5
 43
-67.31465323745347
 44
-57.69198542186306
 45
0.7515316511430735
 46
0.2194188912335623
 79
     6
 49
0.0
 49
-0.0625
 49
0.0
 49
-0.295
 49
0.0
 49
-0.3375
 98
        1
 10
-50.55274279991024
 20
-68.68179451234299
1001
GradientColor1ACI
1070
     5
1001
GradientColor2ACI
1070
     2
1001
ACAD
1010
0.0
1020
0.0
1030
0.0
  0
HATCH
  5
AC54B
330
1F
100
AcDbEntity
  8
HI HATCH FILL
100
AcDbHatch
 10
0.0
 20
0.0
 30
0.0
210
0.0
220
0.0
230
1.0
  2
AR-SAND
 70
     0
 71
     0
 91
        1
 92
        1
 93
       35
 72
     1
 10
-44.76623118105139
 20
-41.13624533697953
 11
-44.30733354068924
 21
-40.75118449620354
 72
     1
 10
-44.30733354068924
 20
-40.75118449620354
 11
-45.59562815020778
 21
-39.67017696450886
 72
     1
 10
-45.59562815020778
 20
-39.67017696450886
 11
-44.96369884295609
 21
-39.64993805545268
 72
     1
 10
-44.96369884295609
 20
-39.64993805545268
 11
-44.11174934600256
 21
-39.62758644056518
 72
     1
 10
-44.11174934600256
 20
-39.62758644056518
 11
-43.32241025211141
 21
-39.63876224800893
 72
     1
 10
-43.32241025211141
 20
-39.63876224800893
 11
-42.79245722985751
 21
-39.66111386289643
 72
     1
 10
-42.79245722985751
 20
-39.66111386289643
 11
-42.16532681916709
 21
-39.62644487757001
 72
     1
 10
-42.16532681916709
 20
-39.62644487757001
 11
-41.30834659711109
 21
-39.59060309929035
 72
     1
 10
-41.30834659711109
 20
-39.59060309929035
 11
-40.2385705737281
 21
-39.58701872504756
 72
     1
 10
-40.2385705737281
 20
-39.58701872504756
 11
-39.54617188840553
 21
-39.69028126881898
 72
     1
 10
-39.54617188840553
 20
-39.69028126881898
 11
-38.43561768516264
 21
-39.66154106515288
 72
     1
 10
-38.43561768516264
 20
-39.66154106515288
 11
-36.8308704188629
 21
-39.7168467674812
 72
     1
 10
-36.8308704188629
 20
-39.7168467674812
 11
-36.8128583832384
 21
-39.4179743011305
 72
     1
 10
-36.8128583832384
 20
-39.4179743011305
 11
-35.88318070936237
 21
-39.47776847516664
 72
     1
 10
-35.88318070936237
 20
-39.47776847516664
 11
-34.98747028333923
 21
-39.56600607005995
 72
     1
 10
-34.98747028333923
 20
-39.56600607005995
 11
-33.84367911608706
 21
-39.57448206491665
 72
     1
 10
-33.84367911608706
 20
-39.57448206491665
 11
-32.64140467040602
 21
-39.58927282915169
 72
     1
 10
-32.64140467040602
 20
-39.58927282915169
 11
-31.94593507035597
 21
-39.54859753038022
 72
     1
 10
-31.94593507035597
 20
-39.54859753038022
 11
-30.9387072892215
 21
-39.60231020885075
 72
     1
 10
-30.9387072892215
 20
-39.60231020885075
 11
-30.60706422340184
 21
-39.60231020885075
 72
     1
 10
-30.60706422340184
 20
-39.60231020885075
 11
-30.25355430497615
 21
-39.60595311471303
 72
     1
 10
-30.25355430497615
 20
-39.60595311471303
 11
-29.4262684040969
 21
-39.56588115022774
 72
     1
 10
-29.4262684040969
 20
-39.56588115022774
 11
-28.78775435763629
 21
-39.60047864055582
 72
     1
 10
-28.78775435763629
 20
-39.60047864055582
 11
-28.19827047884706
 21
-39.61877802107412
 72
     1
 10
-28.19827047884706
 20
-39.61877802107412
 11
-27.61808464448654
 21
-39.58400328302085
 72
     1
 10
-27.61808464448654
 20
-39.58400328302085
 11
-27.25434776352245
 21
-39.58400328302085
 72
     1
 10
-27.25434776352245
 20
-39.58400328302085
 11
-24.96373576538963
 21
-39.59033024087086
 72
     1
 10
-24.96373576538963
 20
-39.59033024087086
 11
-23.95937881990932
 21
-39.54305667166114
 72
     1
 10
-23.95937881990932
 20
-39.54305667166114
 11
-22.66972293605284
 21
-39.53578636572359
 72
     1
 10
-22.66972293605284
 20
-39.53578636572359
 11
-21.64837334619517
 21
-39.62224381005524
 72
     1
 10
-21.64837334619517
 20
-39.62224381005524
 11
-19.85543528995441
 21
-39.55414663401291
 72
     1
 10
-19.85543528995441
 20
-39.55414663401291
 11
-18.60996676468097
 21
-39.35300592207516
 72
     1
 10
-18.60996676468097
 20
-39.35300592207516
 11
-16.94368242587521
 21
-40.75118449620354
 72
     1
 10
-16.94368242587521
 20
-40.75118449620354
 11
-17.40258006623736
 21
-41.13624533697953
 72
     1
 10
-17.40258006623736
 20
-41.13624533697953
 11
-44.76623118105139
 21
-41.13624533697953
 97
        0
 75
     1
 76
     1
 52
0.0
 41
0.25
 77
     0
 78
     4
 53
37.5
 43
-45.59562815020778
 44
-40.57278921870604
 45
-0.0157483395274021
 46
0.4817059422532897
 79
     6
 49
0.0
 49
-0.38
 49
0.0
 49
-0.425
 49
0.0
 49
-0.40625
 53
7.499999999999999
 43
-45.59562815020778
 44
-40.57278921870604
 45
0.4424441763169318
 46
0.7055365163074351
 79
     6
 49
0.0
 49
-0.205
 49
0.0
 49
-0.3425
 49
0.0
 49
-0.13125
 53
327.5
 43
-45.90312815020779
 44
-40.57278921870604
 45
0.7785354654378738
 46
0.0014147633842412
 79
     6
 49
0.0
 49
-0.125
 49
0.0
 49
-0.45
 49
0.0
 49
-0.5875
 53
317.5
 43
-45.90312815020779
 44
-40.57278921870604
 45
0.7515316511430735
 46
0.2194188912335623
 79
     6
 49
0.0
 49
-0.0625
 49
0.0
 49
-0.295
 49
0.0
 49
-0.3375
 98
        1
 10
-59.79999291886679
 20
0.0
1001
GradientColor1ACI
1070
     5
1001
GradientColor2ACI
1070
     2
1001
ACAD
1010
0.0
1020
0.0
1030
0.0
  0
CIRCLE
  5
AC54C
330
1F
100
AcDbEntity
  8
HI Text
100
AcDbCircle
 10
-50.64851762282794
 20
-50.19541491156276
 30
0.0
 40
1.633232321863463
  0
CIRCLE
  5
AC54D
330
1F
100
AcDbEntity
  8
HI Text
100
AcDbCircle
 10
-45.56029476466344
 20
-50.65540090623177
 30
0.0
 40
0.0666400503025599
  0
LINE
  5
AC54E
330
1F
100
AcDbEntity
  8
HI Text
100
AcDbLine
 10
-49.01528530096491
 20
-50.19541491156276
 30
0.0
 11
1.169895694945466
 21
-50.19541491156275
 31
0.0
  0
TEXT
  5
AC54F
330
1F
100
AcDbEntity
  8
HI Text
100
AcDbText
 10
-45.58759538300408
 20
-50.69613327771222
 30
0.0
 40
0.0866448019748771
  1
R
  7
STYLE1
 72
     1
 11
-45.55871378234579
 21
-50.69613327771222
 31
0.0
100
AcDbText
  0
HATCH
  5
AC550
330
1F
100
AcDbEntity
  8
HI Text
100
AcDbHatch
 10
0.0
 20
0.0
 30
0.0
210
0.0
220
0.0
230
1.0
  2
SOLID
 70
     1
 71
     1
 91
       10
 92
        1
 93
        9
 72
     1
 10
-46.88695826093919
 20
-50.7920669119546
 11
-46.60652282813325
 21
-50.54517325959975
 72
     1
 10
-46.60652282813325
 20
-50.54517325959975
 11
-46.60652282813325
 21
-50.73816352903389
 72
     1
 10
-46.60652282813325
 20
-50.73816352903389
 11
-46.52282192297692
 21
-50.73816352903389
 72
     1
 10
-46.52282192297692
 20
-50.73816352903389
 11
-46.52282192297687
 21
-50.7920669119546
 72
     1
 10
-46.52282192297687
 20
-50.7920669119546
 11
-46.60652282813325
 21
-50.7920669119546
 72
     1
 10
-46.60652282813325
 20
-50.7920669119546
 11
-46.60652282813325
 21
-51.22932044049147
 72
     1
 10
-46.60652282813325
 20
-51.22932044049147
 11
-46.8151054837829
 21
-51.22932044049147
 72
     1
 10
-46.8151054837829
 20
-51.22932044049147
 11
-46.8151054837829
 21
-50.7920669119546
 72
     1
 10
-46.8151054837829
 20
-50.7920669119546
 11
-46.88695826093919
 21
-50.7920669119546
 97
        1
330
AC55A
 92
        1
 93
        4
 72
     1
 10
-47.1176058541491
 20
-51.22932044049147
 11
-47.32618850979872
 21
-51.22932044049147
 72
     1
 10
-47.32618850979872
 20
-51.22932044049147
 11
-47.32618850979872
 21
-50.73816352903389
 72
     1
 10
-47.32618850979872
 20
-50.73816352903389
 11
-47.1176058541491
 21
-50.73816352903389
 72
     1
 10
-47.1176058541491
 20
-50.73816352903389
 11
-47.1176058541491
 21
-51.22932044049147
 97
        1
330
AC559
 92
        1
 93
       12
 72
     1
 10
-48.13884628017823
 20
-50.88380310400598
 11
-48.13884628017823
 21
-51.22932044049147
 72
     1
 10
-48.13884628017823
 20
-51.22932044049147
 11
-47.88428948181738
 21
-51.22932044049147
 72
     1
 10
-47.88428948181738
 20
-51.22932044049147
 11
-47.88428948181738
 21
-50.53895537476178
 72
     1
 10
-47.88428948181738
 20
-50.53895537476178
 11
-48.13884628017823
 21
-50.53895537476178
 72
     1
 10
-48.13884628017823
 20
-50.53895537476178
 11
-48.13884628017817
 21
-50.81985561246655
 72
     1
 10
-48.13884628017817
 20
-50.81985561246655
 11
-48.20691746185073
 21
-50.81985561246655
 72
     1
 10
-48.20691746185073
 20
-50.81985561246655
 11
-48.20691746185056
 21
-50.53895537476178
 72
     1
 10
-48.20691746185056
 20
-50.53895537476178
 11
-48.46147426021158
 21
-50.53895537476178
 72
     1
 10
-48.46147426021158
 20
-50.53895537476178
 11
-48.46147426021158
 21
-51.22932044049147
 72
     1
 10
-48.46147426021158
 20
-51.22932044049147
 11
-48.20691746185065
 21
-51.22932044049147
 72
     1
 10
-48.20691746185065
 20
-51.22932044049147
 11
-48.20691746185065
 21
-50.88380310400598
 72
     1
 10
-48.20691746185065
 20
-50.88380310400598
 11
-48.13884628017823
 21
-50.88380310400598
 97
        1
330
AC558
 92
        1
 93
        4
 72
     1
 10
-46.05691506207787
 20
-51.22932044048415
 11
-46.05691506207787
 21
-50.73816352902658
 72
     1
 10
-46.05691506207787
 20
-50.73816352902658
 11
-45.84833240642822
 21
-50.73816352902658
 72
     1
 10
-45.84833240642822
 20
-50.73816352902658
 11
-45.84833240642822
 21
-51.22932044048415
 72
     1
 10
-45.84833240642822
 20
-51.22932044048415
 11
-46.05691506207787
 21
-51.22932044048415
 97
        1
330
AC556
 92
        1
 93
        5
 72
     1
 10
-47.07062730057598
 20
-50.73816352903389
 11
-47.07062730057598
 21
-51.22932044049147
 72
     1
 10
-47.07062730057598
 20
-51.22932044049147
 11
-46.86204464492635
 21
-51.22932044049147
 72
     1
 10
-46.86204464492635
 20
-51.22932044049147
 11
-46.86204464492635
 21
-50.89313271212275
 72
     2
 10
-47.01701382801516
 20
-50.89313271212275
 40
0.1549691830888094
 50
0.0
 51
90.0
 73
     1
 72
     1
 10
-47.01701382801516
 20
-50.73816352903394
 11
-47.07062730057598
 21
-50.73816352903389
 97
        1
330
AC555
 92
        1
 93
        5
 72
     1
 10
-47.5817497190215
 20
-50.73816352903389
 11
-47.37316706337182
 21
-50.73816352903389
 72
     1
 10
-47.37316706337182
 20
-50.73816352903389
 11
-47.37316706337182
 21
-51.07435125740259
 72
     2
 10
-47.52813624646068
 20
-51.07435125740256
 40
0.1549691830888591
 50
0.0000000000131293
 51
90.00000000001312
 73
     0
 72
     1
 10
-47.52813624646072
 20
-51.22932044049142
 11
-47.5817497190215
 21
-51.22932044049147
 72
     1
 10
-47.5817497190215
 20
-51.22932044049147
 11
-47.5817497190215
 21
-50.73816352903389
 97
        1
330
AC554
 92
        1
 93
        5
 72
     1
 10
-47.68234174515543
 20
-51.22932044049147
 11
-47.62872827259466
 21
-51.22932044049147
 72
     1
 10
-47.62872827259466
 20
-51.22932044049147
 11
-47.62872827259466
 21
-50.73816352903389
 72
     1
 10
-47.62872827259466
 20
-50.73816352903389
 11
-47.83731092824424
 21
-50.73816352903389
 72
     1
 10
-47.83731092824424
 20
-50.73816352903389
 11
-47.83731092824424
 21
-51.07435125740259
 72
     2
 10
-47.68234174515541
 20
-51.07435125740263
 40
0.1549691830888378
 50
179.9999999999895
 51
269.9999999999895
 73
     1
 97
        1
330
AC553
 92
        1
 93
        5
 72
     1
 10
-46.08038464265265
 20
-50.98374198476236
 11
-46.08038464264533
 21
-50.92579153865658
 72
     2
 10
-46.28588896245874
 20
-50.94364735203502
 40
0.206278587190675
 50
4.965831443762698
 51
83.9913280435104
 73
     1
 72
     1
 10
-46.26429592888522
 20
-50.73850204637468
 11
-46.29825201135704
 21
-50.73850204636116
 72
     1
 10
-46.29825201135704
 20
-50.73850204636116
 11
-46.29825201135704
 21
-50.98374198476236
 72
     1
 10
-46.29825201135704
 20
-50.98374198476236
 11
-46.08038464265265
 21
-50.98374198476236
 97
        1
330
AC552
 92
        1
 93
        1
 72
     2
 10
-45.72525874872044
 20
-50.83776760616267
 40
0.0996040771360683
 50
0.0
 51
360.0
 73
     1
 97
        1
330
AC551
 92
        1
 93
        6
 72
     2
 10
-46.3231948810927
 20
-50.87325307623581
 40
0.3557288469148716
 50
269.999999999855
 51
311.0226094260925
 73
     1
 72
     1
 10
-46.08970983593943
 20
-51.14163293057879
 11
-46.08970983594931
 21
-51.07655701021252
 72
     2
 10
-46.32319488110304
 20
-50.84579917934845
 40
0.3282749500274638
 50
44.66341740663149
 51
94.35762720154725
 73
     0
 72
     1
 10
-46.34813775083026
 20
-51.17312515764119
 11
-46.34813775083088
 21
-50.73850204637473
 72
     2
 10
-46.33524781143613
 20
-50.98374198476268
 40
0.2455784557287565
 50
93.00872752319534
 51
266.9912724769641
 73
     1
 72
     1
 10
-46.3481377508302
 20
-51.22898192315066
 11
-46.32319488109359
 21
-51.22898192315068
 97
        1
330
AC557
 75
     1
 76
     1
 98
        1
 10
-59.79999291886679
 20
0.6003301331934381
450
        0
451
        0
460
0.0
461
0.0
452
        0
462
1.0
453
        2
463
0.0
 63
     5
421
      255
463
1.0
 63
     2
421
 16776960
470
LINEAR
1001
GradientColor1ACI
1070
     5
1001
GradientColor2ACI
1070
     2
1001
ACAD
1010
11.3385186586552
1020
-51.8296505736849
1030
0.0
  0
CIRCLE
  5
AC551
102
{ACAD_REACTORS
330
AC550
102
}
330
1F
100
AcDbEntity
  8
HI Text
100
AcDbCircle
 10
-45.72525874872044
 20
-50.83776760616267
 30
0.0
 40
0.0996040771360683
  0
LWPOLYLINE
  5
AC552
102
{ACAD_REACTORS
330
AC550
102
}
330
1F
100
AcDbEntity
  8
HI Text
100
AcDbPolyline
 90
        5
 70
     1
 43
0.0
 10
-46.08038464265265
 20
-50.98374198476236
 10
-46.08038464264533
 20
-50.92579153865658
 42
0.3591622824268968
 10
-46.26429592888522
 20
-50.73850204637468
 10
-46.29825201135704
 20
-50.73850204636116
 10
-46.29825201135704
 20
-50.98374198476236
  0
LWPOLYLINE
  5
AC553
102
{ACAD_REACTORS
330
AC550
102
}
330
1F
100
AcDbEntity
  8
HI Text
100
AcDbPolyline
 90
        5
 70
     1
 43
0.0
 10
-47.68234174515543
 20
-51.22932044049147
 10
-47.62872827259466
 20
-51.22932044049147
 10
-47.62872827259466
 20
-50.73816352903389
 10
-47.83731092824424
 20
-50.73816352903389
 10
-47.83731092824424
 20
-51.07435125740259
 42
0.4142135623730951
  0
LWPOLYLINE
  5
AC554
102
{ACAD_REACTORS
330
AC550
102
}
330
1F
100
AcDbEntity
  8
HI Text
100
AcDbPolyline
 90
        5
 70
     1
 43
0.0
 10
-47.5817497190215
 20
-50.73816352903389
 10
-47.37316706337182
 20
-50.73816352903389
 10
-47.37316706337182
 20
-51.07435125740259
 42
-0.4142135623730951
 10
-47.52813624646072
 20
-51.22932044049142
 10
-47.5817497190215
 20
-51.22932044049147
  0
LWPOLYLINE
  5
AC555
102
{ACAD_REACTORS
330
AC550
102
}
330
1F
100
AcDbEntity
  8
HI Text
100
AcDbPolyline
 90
        5
 70
     1
 43
0.0
 10
-47.07062730057598
 20
-50.73816352903389
 10
-47.07062730057598
 20
-51.22932044049147
 10
-46.86204464492635
 20
-51.22932044049147
 10
-46.86204464492635
 20
-50.89313271212275
 42
0.4142135623730948
 10
-47.01701382801516
 20
-50.73816352903394
  0
LWPOLYLINE
  5
AC556
102
{ACAD_REACTORS
330
AC550
102
}
330
1F
100
AcDbEntity
  8
HI Text
100
AcDbPolyline
 90
        4
 70
     1
 43
0.0
 10
-46.05691506207787
 20
-51.22932044048415
 10
-46.05691506207787
 20
-50.73816352902658
 10
-45.84833240642822
 20
-50.73816352902658
 10
-45.84833240642822
 20
-51.22932044048415
  0
LWPOLYLINE
  5
AC557
102
{ACAD_REACTORS
330
AC550
102
}
330
1F
100
AcDbEntity
  8
HI Text
100
AcDbPolyline
 90
        7
 70
     0
 43
0.0
 10
-46.32319488109359
 20
-51.22898192315068
 42
0.1809313373683727
 10
-46.08970983593943
 20
-51.14163293057879
 10
-46.08970983594931
 20
-51.07655701021252
 42
-0.2202952373044754
 10
-46.34813775083026
 20
-51.17312515764119
 10
-46.34813775083088
 20
-50.73850204637473
 42
0.9488198287109453
 10
-46.3481377508302
 20
-51.22898192315066
 10
-46.32319488109359
 20
-51.22898192315068
  0
LWPOLYLINE
  5
AC558
102
{ACAD_REACTORS
330
AC550
102
}
330
1F
100
AcDbEntity
  8
HI Text
100
AcDbPolyline
 90
       12
 70
     1
 43
0.0
 10
-48.13884628017823
 20
-50.88380310400598
 10
-48.13884628017823
 20
-51.22932044049147
 10
-47.88428948181738
 20
-51.22932044049147
 10
-47.88428948181738
 20
-50.53895537476178
 10
-48.13884628017823
 20
-50.53895537476178
 10
-48.13884628017817
 20
-50.81985561246655
 10
-48.20691746185073
 20
-50.81985561246655
 10
-48.20691746185056
 20
-50.53895537476178
 10
-48.46147426021158
 20
-50.53895537476178
 10
-48.46147426021158
 20
-51.22932044049147
 10
-48.20691746185065
 20
-51.22932044049147
 10
-48.20691746185065
 20
-50.88380310400598
  0
LWPOLYLINE
  5
AC559
102
{ACAD_REACTORS
330
AC550
102
}
330
1F
100
AcDbEntity
  8
HI Text
100
AcDbPolyline
 90
        4
 70
     1
 43
0.0
 10
-47.1176058541491
 20
-51.22932044049147
 10
-47.32618850979872
 20
-51.22932044049147
 10
-47.32618850979872
 20
-50.73816352903389
 10
-47.1176058541491
 20
-50.73816352903389
  0
LWPOLYLINE
  5
AC55A
102
{ACAD_REACTORS
330
AC550
102
}
330
1F
100
AcDbEntity
  8
HI Text
100
AcDbPolyline
 90
        9
 70
     1
 43
0.0
 10
-46.88695826093919
 20
-50.7920669119546
 10
-46.60652282813325
 20
-50.54517325959975
 10
-46.60652282813325
 20
-50.73816352903389
 10
-46.52282192297692
 20
-50.73816352903389
 10
-46.52282192297687
 20
-50.7920669119546
 10
-46.60652282813325
 20
-50.7920669119546
 10
-46.60652282813325
 20
-51.22932044049147
 10
-46.8151054837829
 20
-51.22932044049147
 10
-46.8151054837829
 20
-50.7920669119546
  0
MTEXT
  5
AC55B
102
{ACAD_XDICTIONARY
360
AC55C
102
}
330
1F
100
AcDbEntity
  8
HI Text
100
AcDbMText
 10
-14.90925131289293
 20
-49.38210133818558
 30
0.0
 40
0.9703124999999996
 41
33.6762967440676
 46
0.0
 71
     6
 72
     1
  1
{\fArial|b0|i0|c0|p34;ECO-MAT - UNDER GRASS PAVERS}
  7
Hunter
 73
     1
 44
1.0
  0
MTEXT
  5
AC55D
330
1F
100
AcDbEntity
  8
HI Text
100
AcDbMText
 10
0.7146779921893085
 20
-50.77612284699704
 30
0.0
 40
0.5624999999999999
 41
0.0
 46
0.0
 71
     6
 72
     1
  1
{\fArial|b0|i0|c0|p34;NOT TO SCALE}
  7
Hunter
 73
     1
 44
1.0
  0
MTEXT
  5
AC55E
330
1F
100
AcDbEntity
  8
HI Text
100
AcDbMText
 10
-49.7449321348727
 20
-50.22812242943048
 30
0.0
 40
1.455468749999999
 41
0.0
 46
0.0
 71
     6
 72
     1
  1
{\fArial|b0|i0|c0|p34;XX}
  7
Hunter
 73
     1
 44
1.0
  0
MTEXT
  5
AC55F
102
{ACAD_XDICTIONARY
360
AC560
102
}
330
1F
100
AcDbEntity
  8
HI Text
100
AcDbMText
 10
-44.74855328342513
 20
-50.53895537476178
 30
0.0
 40
0.9703124999999996
 41
33.6762967440676
 46
0.0
 71
     1
 72
     1
  1
{\fArial|b0|i0|c0|p34;HM.EM.15}
  7
Hunter
 73
     1
 44
1.0
  0
ARC
  5
AC57C
330
1F
100
AcDbEntity
  8
HI Detail 3
100
AcDbCircle
 10
-40.13935715402006
 20
-34.87270752640081
 30
0.0
 40
0.3155275572235842
100
AcDbArc
 50
15.91800068431539
 51
77.81025399999854
  0
ARC
  5
AC57D
330
1F
100
AcDbEntity
  8
HI Detail 3
100
AcDbCircle
 10
-40.00447349058512
 20
-34.6826480019536
 30
0.0
 40
0.2075551725847646
100
AcDbArc
 50
330.0812743177069
 51
73.43806800000095
  0
ARC
  5
AC57E
330
1F
100
AcDbEntity
  8
HI Detail 3
100
AcDbCircle
 10
-40.20137471565643
 20
-34.50207486912807
 30
0.0
 40
0.4909882104619119
100
AcDbArc
 50
324.6464546252268
 51
47.18531499999854
  0
ARC
  5
AC583
330
1F
100
AcDbEntity
  8
HI Detail 3
100
AcDbCircle
 10
-39.64681662492918
 20
-34.4783699464745
 30
0.0
 40
0.5493173568943436
100
AcDbArc
 50
148.6806399999998
 51
214.0788240000004
  0
ARC
  5
AC584
330
1F
100
AcDbEntity
  8
HI Detail 3
100
AcDbCircle
 10
-40.36031710656052
 20
-34.73514379148677
 30
0.0
 40
0.2494987334889411
100
AcDbArc
 50
348.1987770000005
 51
73.05072099999847
  0
LINE
  5
AC58F
330
1F
100
AcDbEntity
  8
HI Detail 3
100
AcDbLine
 10
-38.30448100583427
 20
-34.21610328169803
 30
0.0
 11
-38.23778958653264
 21
-34.78617051051293
 31
0.0
  0
ARC
  5
AC590
330
1F
100
AcDbEntity
  8
HI Detail 3
100
AcDbCircle
 10
-38.69045552442875
 20
-34.48010359007152
 30
0.0
 40
0.5493173568943436
100
AcDbArc
 50
326.1392171846263
 51
31.31936000000023
  0
ARC
  5
AC591
330
1F
100
AcDbEntity
  8
HI Detail 3
100
AcDbCircle
 10
-38.58836514485139
 20
-34.7371118307743
 30
0.0
 40
0.3446854965995054
100
AcDbArc
 50
351.8173725298466
 51
67.9397740000008
  0
ARC
  5
AC59F
330
1F
100
AcDbEntity
  8
HI Detail 3
100
AcDbCircle
 10
-39.23906965848661
 20
-34.81211845170796
 30
0.0
 40
0.4089850992972934
100
AcDbArc
 50
3.63755726387059
 51
54.5311909999982
  0
ARC
  5
AC5A0
330
1F
100
AcDbEntity
  8
HI Detail 3
100
AcDbCircle
 10
-37.51080389463388
 20
-34.91955570656298
 30
0.0
 40
1.306521578388193
100
AcDbArc
 50
153.5462989999988
 51
174.1403591200893
  0
ARC
  5
AC5A1
330
1F
100
AcDbEntity
  8
HI Detail 3
100
AcDbCircle
 10
-40.86784108559722
 20
-34.86302211957032
 30
0.0
 40
2.109388733911527
100
AcDbArc
 50
2.087925989910591
 51
20.40687000000047
  0
ARC
  5
AC5A2
330
1F
100
AcDbEntity
  8
HI Detail 3
100
AcDbCircle
 10
-39.4880465298722
 20
-34.88666954894133
 30
0.0
 40
0.3155275572235842
100
AcDbArc
 50
18.57290814192589
 51
77.81025399999854
  0
ARC
  5
AC5A3
330
1F
100
AcDbEntity
  8
HI Detail 3
100
AcDbCircle
 10
-39.35316286643748
 20
-34.69661002449419
 30
0.0
 40
0.2075551725847646
100
AcDbArc
 50
334.4370770767597
 51
73.43806800000095
  0
ARC
  5
AC5A4
330
1F
100
AcDbEntity
  8
HI Detail 3
100
AcDbCircle
 10
-39.55006409150863
 20
-34.51603689166858
 30
0.0
 40
0.4909882104619119
100
AcDbArc
 50
326.6203963104102
 51
47.18531499999854
  0
ARC
  5
AC5A5
330
1F
100
AcDbEntity
  8
HI Detail 3
100
AcDbCircle
 10
-38.25417877039316
 20
-34.61916215033192
 30
0.0
 40
0.4289220006633866
100
AcDbArc
 50
144.048360999999
 51
202.915159730787
  0
LINE
  5
AC5BD
330
1F
100
AcDbEntity
  8
HI Detail 3
100
AcDbLine
 10
-32.44104155564465
 20
-34.21610328169803
 30
0.0
 11
-32.37435013634302
 21
-34.78617051051293
 31
0.0
  0
ARC
  5
AC5BE
330
1F
100
AcDbEntity
  8
HI Detail 3
100
AcDbCircle
 10
-32.82701607423913
 20
-34.48010359007152
 30
0.0
 40
0.5493173568943436
100
AcDbArc
 50
326.1392171846265
 51
31.31936000000023
  0
ARC
  5
AC5BF
330
1F
100
AcDbEntity
  8
HI Detail 3
100
AcDbCircle
 10
-32.72492569466177
 20
-34.7371118307743
 30
0.0
 40
0.3446854965995054
100
AcDbArc
 50
351.8173725298466
 51
67.9397740000008
  0
ARC
  5
AC5C0
330
1F
100
AcDbEntity
  8
HI Detail 3
100
AcDbCircle
 10
-32.11351559260785
 20
-34.73684205460235
 30
0.0
 40
0.2494987334889411
100
AcDbArc
 50
106.9492790000015
 51
191.4030922775443
  0
ARC
  5
AC5C1
330
1F
100
AcDbEntity
  8
HI Detail 3
100
AcDbCircle
 10
-31.34419797873564
 20
-34.87270752640081
 30
0.0
 40
0.3155275572235842
100
AcDbArc
 50
15.91800068431539
 51
77.81025399999854
  0
ARC
  5
AC5C2
330
1F
100
AcDbEntity
  8
HI Detail 3
100
AcDbCircle
 10
-31.2093143153007
 20
-34.6826480019536
 30
0.0
 40
0.2075551725847646
100
AcDbArc
 50
330.0812743177069
 51
73.43806800000095
  0
ARC
  5
AC5C3
330
1F
100
AcDbEntity
  8
HI Detail 3
100
AcDbCircle
 10
-31.40621554037201
 20
-34.50207486912807
 30
0.0
 40
0.4909882104619119
100
AcDbArc
 50
324.6464546252268
 51
47.18531499999854
  0
ARC
  5
AC5C4
330
1F
100
AcDbEntity
  8
HI Detail 3
100
AcDbCircle
 10
-29.7653661013646
 20
-34.84960849449421
 30
0.0
 40
2.109388733911527
100
AcDbArc
 50
159.5931299999995
 51
178.2766207034885
  0
ARC
  5
AC5C5
330
1F
100
AcDbEntity
  8
HI Detail 3
100
AcDbCircle
 10
-33.15849580609179
 20
-34.90599613700033
 30
0.0
 40
1.306521578388193
100
AcDbArc
 50
5.262189393509736
 51
26.45370100000122
  0
ARC
  5
AC5C6
330
1F
100
AcDbEntity
  8
HI Detail 3
100
AcDbCircle
 10
-31.41246019536956
 20
-34.79926649177678
 30
0.0
 40
0.4089850992972934
100
AcDbArc
 50
125.4688090000018
 51
178.1650364772452
  0
ARC
  5
AC5C7
330
1F
100
AcDbEntity
  8
HI Detail 3
100
AcDbCircle
 10
-32.05273192526643
 20
-34.83484598855805
 30
0.0
 40
0.2083158529385729
100
AcDbArc
 50
13.51275949790643
 51
95.49517199999971
  0
ARC
  5
AC5C8
330
1F
100
AcDbEntity
  8
HI Detail 3
100
AcDbCircle
 10
-30.85165744964476
 20
-34.4783699464745
 30
0.0
 40
0.5493173568943436
100
AcDbArc
 50
148.6806399999998
 51
214.0788240000004
  0
ARC
  5
AC5C9
330
1F
100
AcDbEntity
  8
HI Detail 3
100
AcDbCircle
 10
-31.5651579312761
 20
-34.73514379148677
 30
0.0
 40
0.2494987334889411
100
AcDbArc
 50
348.1987770000005
 51
73.05072099999847
  0
ARC
  5
AC5CA
330
1F
100
AcDbEntity
  8
HI Detail 3
100
AcDbCircle
 10
-30.89192486023435
 20
-34.64131033179636
 30
0.0
 40
0.6963630608697722
100
AcDbArc
 50
149.6093049999992
 51
192.0065744193633
  0
ARC
  5
AC5CB
330
1F
100
AcDbEntity
  8
HI Detail 3
100
AcDbCircle
 10
-32.0808726757971
 20
-34.87050509142283
 30
0.0
 40
0.5050431067665801
100
AcDbArc
 50
9.612561748665376
 51
47.53101200000027
  0
ARC
  5
AC5CC
330
1F
100
AcDbEntity
  8
HI Detail 3
100
AcDbCircle
 10
-31.75971519944332
 20
-34.60520455035166
 30
0.0
 40
0.4289220006633866
100
AcDbArc
 50
144.048360999999
 51
204.9551558413416
  0
ARC
  5
AC5CE
330
1F
100
AcDbEntity
  8
HI Detail 3
100
AcDbCircle
 10
-31.64736444444426
 20
-34.91955570656298
 30
0.0
 40
1.306521578388193
100
AcDbArc
 50
153.5462989999988
 51
174.1403591200893
  0
ARC
  5
AC5D3
330
1F
100
AcDbEntity
  8
HI Detail 3
100
AcDbCircle
 10
-32.39073932020354
 20
-34.61916215033192
 30
0.0
 40
0.4289220006633866
100
AcDbArc
 50
144.048360999999
 51
202.915159730787
  0
ARC
  5
AC5EF
330
1F
100
AcDbEntity
  8
HI Detail 3
100
AcDbCircle
 10
-25.48075852854603
 20
-34.87270752640081
 30
0.0
 40
0.3155275572235842
100
AcDbArc
 50
15.91800068431539
 51
77.81025399999854
  0
ARC
  5
AC5F0
330
1F
100
AcDbEntity
  8
HI Detail 3
100
AcDbCircle
 10
-25.34587486511108
 20
-34.6826480019536
 30
0.0
 40
0.2075551725847646
100
AcDbArc
 50
330.0812743177069
 51
73.43806800000095
  0
ARC
  5
AC5F1
330
1F
100
AcDbEntity
  8
HI Detail 3
100
AcDbCircle
 10
-25.54277609018239
 20
-34.50207486912807
 30
0.0
 40
0.4909882104619119
100
AcDbArc
 50
324.6464546252268
 51
47.18531499999854
  0
LINE
  5
AC602
330
1F
100
AcDbEntity
  8
HI Detail 3
100
AcDbLine
 10
-23.64588238036023
 20
-34.21610328169803
 30
0.0
 11
-23.5791909610586
 21
-34.78617051051293
 31
0.0
  0
ARC
  5
AC603
330
1F
100
AcDbEntity
  8
HI Detail 3
100
AcDbCircle
 10
-24.03185689895471
 20
-34.48010359007152
 30
0.0
 40
0.5493173568943436
100
AcDbArc
 50
326.1392171846265
 51
31.31936000000023
  0
ARC
  5
AC604
330
1F
100
AcDbEntity
  8
HI Detail 3
100
AcDbCircle
 10
-23.92976651937734
 20
-34.7371118307743
 30
0.0
 40
0.3446854965995054
100
AcDbArc
 50
351.8173725298466
 51
67.9397740000008
  0
ARC
  5
AC605
330
1F
100
AcDbEntity
  8
HI Detail 3
100
AcDbCircle
 10
-23.31835641732342
 20
-34.73684205460235
 30
0.0
 40
0.2494987334889411
100
AcDbArc
 50
106.9492790000015
 51
191.4030922775443
  0
ARC
  5
AC606
330
1F
100
AcDbEntity
  8
HI Detail 3
100
AcDbCircle
 10
-22.96455602415889
 20
-34.60520455035166
 30
0.0
 40
0.4289220006633866
100
AcDbArc
 50
144.0483609999995
 51
204.9551558413416
  0
ARC
  5
AC607
330
1F
100
AcDbEntity
  8
HI Detail 3
100
AcDbCircle
 10
-24.58047103301256
 20
-34.81211845170796
 30
0.0
 40
0.4089850992972934
100
AcDbArc
 50
3.63755726387059
 51
54.5311909999982
  0
ARC
  5
AC608
330
1F
100
AcDbEntity
  8
HI Detail 3
100
AcDbCircle
 10
-22.85220526915983
 20
-34.91955570656298
 30
0.0
 40
1.306521578388193
100
AcDbArc
 50
153.5462989999988
 51
174.1403591200893
  0
ARC
  5
AC609
330
1F
100
AcDbEntity
  8
HI Detail 3
100
AcDbCircle
 10
-26.20924246012318
 20
-34.86302211957032
 30
0.0
 40
2.109388733911527
100
AcDbArc
 50
2.087925989910591
 51
20.40687000000047
  0
ARC
  5
AC60A
330
1F
100
AcDbEntity
  8
HI Detail 3
100
AcDbCircle
 10
-24.82944790439816
 20
-34.88666954894133
 30
0.0
 40
0.3155275572235842
100
AcDbArc
 50
18.5729081419259
 51
77.81025399999854
  0
ARC
  5
AC60B
330
1F
100
AcDbEntity
  8
HI Detail 3
100
AcDbCircle
 10
-24.69456424096344
 20
-34.69661002449419
 30
0.0
 40
0.2075551725847646
100
AcDbArc
 50
334.4370770767592
 51
73.43806800000095
  0
ARC
  5
AC60C
330
1F
100
AcDbEntity
  8
HI Detail 3
100
AcDbCircle
 10
-24.89146546603458
 20
-34.51603689166858
 30
0.0
 40
0.4909882104619119
100
AcDbArc
 50
326.6203963104102
 51
47.18531499999854
  0
ARC
  5
AC60D
330
1F
100
AcDbEntity
  8
HI Detail 3
100
AcDbCircle
 10
-23.59558014491912
 20
-34.61916215033192
 30
0.0
 40
0.4289220006633866
100
AcDbArc
 50
144.0483609999995
 51
202.915159730787
  0
LINE
  5
AC60E
330
1F
100
AcDbEntity
  8
HI Deatil 2
100
AcDbLine
 10
-40.29607198615368
 20
-34.78617051051293
 30
0.0
 11
-38.12269253577857
 21
-34.78617051051293
 31
0.0
  0
CIRCLE
  5
AC60F
330
1F
100
AcDbEntity
  8
HI Detail 3
100
AcDbCircle
 10
-24.79968602692892
 20
-39.0383729698697
 30
0.0
 40
0.322288494273214
  0
CIRCLE
  5
AC610
330
1F
100
AcDbEntity
  8
HI Detail 3
100
AcDbCircle
 10
-33.72601270567422
 20
-39.04193397867335
 30
0.0
 40
0.322288494273214
  0
CIRCLE
  5
AC611
330
1F
100
AcDbEntity
  8
HI Detail 3
100
AcDbCircle
 10
-42.6519412438699
 20
-39.07132076764945
 30
0.0
 40
0.322288494273214
  0
CIRCLE
  5
AC612
330
1F
100
AcDbEntity
  8
HI Deatil 2
100
AcDbCircle
 10
-24.79968602692892
 20
-39.0383729698697
 30
0.0
 40
0.4641178998959106
  0
CIRCLE
  5
AC613
330
1F
100
AcDbEntity
  8
HI Deatil 2
100
AcDbCircle
 10
-33.72601270567422
 20
-39.04193397867335
 30
0.0
 40
0.4641178998959106
  0
CIRCLE
  5
AC614
330
1F
100
AcDbEntity
  8
HI Deatil 2
100
AcDbCircle
 10
-42.6519412438699
 20
-39.07132076764945
 30
0.0
 40
0.4641178998959106
  0
ARC
  5
AC615
102
{ACAD_REACTORS
330
AC679
102
}
330
1F
100
AcDbEntity
  8
HI Detail 3
100
AcDbCircle
 10
-42.6519412438699
 20
-39.07132076764945
 30
0.0
 40
0.5641178998959106
100
AcDbArc
 50
0.0
 51
180.0
  0
MTEXT
  5
AC616
330
1F
100
AcDbEntity
  8
HI Text
100
AcDbMText
 10
-11.41663520785246
 20
-29.11241253191096
 30
0.0
 40
0.5
 41
0.0
 46
0.0
 71
     6
 72
     1
  1
{\fArial|b0|i0|c0|p34;1}
  7
Hunter
 73
     1
 44
1.0
  0
CIRCLE
  5
AC617
330
1F
100
AcDbEntity
  8
HI Text
100
AcDbCircle
 10
-11.48733114393476
 20
-29.14276603356523
 30
0.0
 40
0.511352622321557
  0
LWPOLYLINE
  5
AC618
330
1F
100
AcDbEntity
  8
HI Text
100
AcDbPolyline
 90
        2
 70
     0
 43
0.0
 10
-12.25282379920011
 20
-28.42277212615445
 10
1.136195061704086
 20
-28.42277212615445
  0
MTEXT
  5
AC619
330
1F
100
AcDbEntity
  8
HI Text
100
AcDbMText
 10
-9.118364583118506
 20
-27.86462592511688
 30
0.0
 40
0.7499999999999999
 41
0.0
 46
0.0
 71
     6
 72
     1
  1
{\fArial|b0|i0|c0|p34;LEGEND:}
  7
Hunter
 73
     1
 44
1.0
  0
MTEXT
  5
AC61A
330
1F
100
AcDbEntity
  8
HI Text
100
AcDbMText
 10
-10.86652241119817
 20
-28.8264042561701
 30
0.0
 40
0.5
 41
14.36766712141882
 46
0.6558663028649381
 71
     1
 72
     1
  1
\A1;{\fArial|b0|i0|c0|p34;ECO-MAT PER PLAN }
  7
Hunter
 73
     1
 44
1.0
  0
CIRCLE
  5
AC61B
330
1F
100
AcDbEntity
  8
HI Text
100
AcDbCircle
 10
-11.48733114393476
 20
-31.08078595592931
 30
0.0
 40
0.511352622321557
  0
MTEXT
  5
AC61C
330
1F
100
AcDbEntity
  8
HI Text
100
AcDbMText
 10
-11.41663520785246
 20
-31.05043245427503
 30
0.0
 40
0.5
 41
0.231821282401093
 46
0.0
 71
     6
 72
     1
  1
{\fArial|b0|i0|c0|p34;2}
  7
Hunter
 73
     1
 44
1.0
  0
CIRCLE
  5
AC61D
330
1F
100
AcDbEntity
  8
HI Text
100
AcDbCircle
 10
-11.48733114393476
 20
-33.00928702414839
 30
0.0
 40
0.511352622321557
  0
MTEXT
  5
AC61E
330
1F
100
AcDbEntity
  8
HI Text
100
AcDbMText
 10
-11.41663520785246
 20
-32.97893352249411
 30
0.0
 40
0.5
 41
0.2318212824010922
 46
0.0
 71
     6
 72
     1
  1
{\fArial|b0|i0|c0|p34;3}
  7
Hunter
 73
     1
 44
1.0
  0
MTEXT
  5
AC61F
330
1F
100
AcDbEntity
  8
HI Text
100
AcDbMText
 10
-10.8665092352237
 20
-31.04893040297792
 30
0.0
 40
0.5
 41
14.36766712141882
 46
0.0
 71
     4
 72
     1
  1
\A1;{\fArial|b0|i0|c0|p34;PLANT MATERIAL (SEE PLANTING PLAN)}
  7
Hunter
 73
     1
 44
1.0
  0
CIRCLE
  5
AC620
330
1F
100
AcDbEntity
  8
HI Text
100
AcDbCircle
 10
-11.48733114393476
 20
-42.3170045072239
 30
0.0
 40
0.511352622321557
  0
MTEXT
  5
AC621
330
1F
100
AcDbEntity
  8
HI Text
100
AcDbMText
 10
-11.41663520785246
 20
-42.28665100556963
 30
0.0
 40
0.5
 41
0.2318212824010922
 46
0.0
 71
     6
 72
     1
  1
{\fArial|b0|i0|c0|p34;7}
  7
Hunter
 73
     1
 44
1.0
  0
MTEXT
  5
AC622
330
1F
100
AcDbEntity
  8
HI Text
100
AcDbMText
 10
-10.8665092352237
 20
-42.28536180164391
 30
0.0
 40
0.5
 41
14.36766712141882
 46
0.0
 71
     4
 72
     1
  1
\A1;{\fArial|b0|i0|c0|p34;NATIVE SOIL}
  7
Hunter
 73
     1
 44
1.0
  0
MTEXT
  5
AC623
330
1F
100
AcDbEntity
  8
HI Text
100
AcDbMText
 10
-10.86650923522369
 20
-32.7240672283864
 30
0.0
 40
0.5
 41
14.36766712141882
 46
0.0
 71
     1
 72
     1
  1
\A1;{\fArial|b0|i0|c0|p34;STAKE INSTALLED APPROX. 8' (2.4 M)\PON CENTER OVER TUBING TYP.}
  7
Hunter
 73
     1
 44
1.0
  0
CIRCLE
  5
AC624
330
1F
100
AcDbEntity
  8
HI Text
100
AcDbCircle
 10
-11.48733114393476
 20
-35.47388941704519
 30
0.0
 40
0.511352622321557
  0
MTEXT
  5
AC625
330
1F
100
AcDbEntity
  8
HI Text
100
AcDbMText
 10
-11.41663520785246
 20
-35.44353591539092
 30
0.0
 40
0.5
 41
0.231821282401093
 46
0.0
 71
     6
 72
     1
  1
{\fArial|b0|i0|c0|p34;4}
  7
Hunter
 73
     1
 44
1.0
  0
MTEXT
  5
AC626
330
1F
100
AcDbEntity
  8
HI Text
100
AcDbMText
 10
-10.86650923522369
 20
-37.19031168505226
 30
0.0
 40
0.5
 41
14.36766712141882
 46
0.0
 71
     1
 72
     1
  1
\A1;{\fArial|b0|i0|c0|p34;SOIL MEDIA TYPE AND DEPTH SPECIFIED\PBY OTHERS}
  7
Hunter
 73
     1
 44
1.0
  0
LINE
  5
AC627
102
{ACAD_REACTORS
330
AC6C4
102
}
330
1F
100
AcDbEntity
  8
HI Detail 3
100
AcDbLine
 10
-44.76623118105139
 20
-41.13624533697953
 30
0.0
 11
-17.40258006623736
 21
-41.13624533697953
 31
0.0
  0
CIRCLE
  5
AC628
330
1F
100
AcDbEntity
  8
HI Text
100
AcDbCircle
 10
-11.48733114393476
 20
-39.92180580557925
 30
0.0
 40
0.511352622321557
  0
MTEXT
  5
AC629
330
1F
100
AcDbEntity
  8
HI Text
100
AcDbMText
 10
-11.41663520785246
 20
-39.89145230392497
 30
0.0
 40
0.5
 41
0.2318212824010939
 46
0.0
 71
     6
 72
     1
  1
{\fArial|b0|i0|c0|p34;6}
  7
Hunter
 73
     1
 44
1.0
  0
MTEXT
  5
AC62A
330
1F
100
AcDbEntity
  8
HI Text
100
AcDbMText
 10
-10.8665092352237
 20
-40.31987018204028
 30
0.0
 40
0.5
 41
14.36766712141882
 46
0.0
 71
     4
 72
     1
  1
\A1;{\fArial|b0|i0|c0|p34;STABILIZING BASE COURSE TYPE AND \PDEPTH SPECIFIED BY OTHERS}
  7
Hunter
 73
     1
 44
1.0
  0
LWPOLYLINE
  5
AC62B
330
1F
100
AcDbEntity
  8
HI Dimensions
100
AcDbPolyline
 90
        2
 70
     0
 43
0.075
 10
-49.5065559322436
 20
-39.35411804563172
 10
-49.0065559322436
 20
-39.85411804563172
  0
LWPOLYLINE
  5
AC62C
330
1F
100
AcDbEntity
  8
HI Dimensions
100
AcDbPolyline
 90
        2
 70
     0
 43
0.075
 10
-49.5065559322436
 20
-34.53617051051293
 10
-49.0065559322436
 20
-35.03617051051293
  0
LINE
  5
AC62D
330
1F
100
AcDbEntity
  8
HI Dimensions
100
AcDbLine
 10
-49.2565559322436
 20
-39.89993409039744
 30
0.0
 11
-49.2565559322436
 21
-37.56760384794814
 31
0.0
  0
LINE
  5
AC62E
330
1F
100
AcDbEntity
  8
HI Dimensions
100
AcDbLine
 10
-49.2565559322436
 20
-34.37782428180313
 30
0.0
 11
-49.2565559322436
 21
-36.85220289633207
 31
0.0
  0
MTEXT
  5
AC62F
102
{ACAD_XDICTIONARY
360
AC630
102
}
330
1F
100
AcDbEntity
  8
HI Text
100
AcDbMText
 10
-49.2565559322436
 20
-37.19514427807233
 30
0.0
 40
0.5
 41
9.609171224198007
 46
0.0
 71
     5
 72
     5
  1
DEPTH PER PLAN
  7
DIMS
 73
     1
 44
1.0
1001
ACAD
1000
ACAD_MTEXT_COLUMN_INFO_BEGIN
1070
    75
1070
     2
1070
    79
1070
     0
1070
    76
1070
     1
1070
    78
1070
     0
1070
    48
1040
9.609171224198007
1070
    49
1040
60.5201024220279
1070
    50
1070
     1
1040
0.0
1000
ACAD_MTEXT_COLUMN_INFO_END
  0
LINE
  5
AC631
330
1F
100
AcDbEntity
  8
HI Dimensions
100
AcDbLine
 10
-49.81988740432029
 20
-34.78617051051293
 30
0.0
 11
-45.67060573992193
 21
-34.78617051051293
 31
0.0
  0
LINE
  5
AC632
330
1F
100
AcDbEntity
  8
HI Dimensions
100
AcDbLine
 10
-49.81988740432029
 20
-39.60411804563172
 30
0.0
 11
-45.91355313081908
 21
-39.60411804563172
 31
0.0
  0
LWPOLYLINE
  5
AC633
330
1F
100
AcDbEntity
  8
HI Deatil 1
100
AcDbPolyline
 90
        2
 70
     0
 43
0.0
 10
-45.45269253577858
 20
-33.45137615614794
 10
-45.45269253577859
 20
-37.86797356516834
  0
LWPOLYLINE
  5
AC634
102
{ACAD_REACTORS
330
AC6C4
102
}
330
1F
100
AcDbEntity
  8
HI Deatil 1
100
AcDbPolyline
 90
        2
 70
     0
 43
0.0
 10
-45.45269253577861
 20
-41.7122548065486
 10
-45.45269253577862
 20
-44.06982790886014
  0
LWPOLYLINE
  5
AC635
330
1F
100
AcDbEntity
  8
HI Deatil 1
100
AcDbPolyline
 90
        2
 70
     0
 43
0.0
 10
-46.59805153086796
 20
-38.82904387551342
 10
-45.45269253577859
 20
-37.86797356516834
  0
LWPOLYLINE
  5
AC636
330
1F
100
AcDbEntity
  8
HI Deatil 1
100
AcDbPolyline
 90
        2
 70
     0
 43
0.0
 10
-46.59805153086796
 20
-38.82904387551342
 10
-45.45269253577861
 20
-39.79011418585848
  0
LWPOLYLINE
  5
AC637
330
1F
100
AcDbEntity
  8
HI Deatil 1
100
AcDbPolyline
 90
        2
 70
     0
 43
0.0
 10
-44.30733354068924
 20
-40.75118449620354
 10
-44.76623118105139
 20
-41.13624533697953
  0
LWPOLYLINE
  5
AC638
330
1F
100
AcDbEntity
  8
HI Deatil 1
100
AcDbPolyline
 90
        2
 70
     0
 43
0.0
 10
-44.30733354068924
 20
-40.75118449620354
 10
-45.45269253577861
 20
-39.79011418585848
  0
LWPOLYLINE
  5
AC639
330
1F
100
AcDbEntity
  8
HI Deatil 1
100
AcDbPolyline
 90
        2
 70
     0
 43
0.0
 10
-18.08904142096455
 20
-33.45137615614794
 10
-18.08904142096457
 20
-37.86797356516834
  0
LWPOLYLINE
  5
AC63A
102
{ACAD_REACTORS
330
AC6C4
102
}
330
1F
100
AcDbEntity
  8
HI Deatil 1
100
AcDbPolyline
 90
        2
 70
     0
 43
0.0
 10
-18.08904142096458
 20
-41.7122548065486
 10
-18.08904142096459
 20
-44.06982790886023
  0
LWPOLYLINE
  5
AC63B
330
1F
100
AcDbEntity
  8
HI Deatil 1
100
AcDbPolyline
 90
        2
 70
     0
 43
0.0
 10
-19.23440041605394
 20
-38.82904387551342
 10
-18.08904142096457
 20
-37.86797356516834
  0
LWPOLYLINE
  5
AC63C
330
1F
100
AcDbEntity
  8
HI Deatil 1
100
AcDbPolyline
 90
        2
 70
     0
 43
0.0
 10
-19.23440041605394
 20
-38.82904387551342
 10
-18.08904142096458
 20
-39.79011418585848
  0
LWPOLYLINE
  5
AC63D
330
1F
100
AcDbEntity
  8
HI Deatil 1
100
AcDbPolyline
 90
        2
 70
     0
 43
0.0
 10
-16.94368242587521
 20
-40.75118449620354
 10
-17.40258006623736
 20
-41.13624533697953
  0
LWPOLYLINE
  5
AC63E
330
1F
100
AcDbEntity
  8
HI Deatil 1
100
AcDbPolyline
 90
        2
 70
     0
 43
0.0
 10
-16.94368242587521
 20
-40.75118449620354
 10
-18.08904142096458
 20
-39.79011418585848
  0
LWPOLYLINE
  5
AC63F
330
1F
100
AcDbEntity
  8
HI Dimensions
100
AcDbPolyline
 90
        2
 70
     0
 43
0.075
 10
-49.5065559322436
 20
-40.88624533697954
 10
-49.0065559322436
 20
-41.38624533697954
  0
LINE
  5
AC640
330
1F
100
AcDbEntity
  8
HI Dimensions
100
AcDbLine
 10
-49.2565559322436
 20
-41.48952783938121
 30
0.0
 11
-49.2565559322436
 21
-40.65089623090853
 31
0.0
  0
LINE
  5
AC641
330
1F
100
AcDbEntity
  8
HI Dimensions
100
AcDbLine
 10
-49.81988740432029
 20
-41.13624533697953
 30
0.0
 11
-44.99636347735486
 21
-41.13624533697953
 31
0.0
  0
MTEXT
  5
AC642
102
{ACAD_XDICTIONARY
360
AC643
102
}
330
1F
100
AcDbEntity
  8
HI Text
100
AcDbMText
 10
-49.2565559322436
 20
-40.25926962414767
 30
0.0
 40
0.5
 41
9.609171224198007
 46
0.0
 71
     5
 72
     5
  1
2" - 6" (5 - 15.2 CM)
  7
DIMS
 73
     1
 44
1.0
1001
ACAD
1000
ACAD_MTEXT_COLUMN_INFO_BEGIN
1070
    75
1070
     2
1070
    79
1070
     0
1070
    76
1070
     1
1070
    78
1070
     0
1070
    48
1040
9.609171224198007
1070
    49
1040
60.5201024220279
1070
    50
1070
     1
1040
0.0
1000
ACAD_MTEXT_COLUMN_INFO_END
  0
MTEXT
  5
AC647
102
{ACAD_XDICTIONARY
360
AC648
102
}
330
1F
100
AcDbEntity
  8
HI Text
100
AcDbMText
 10
-38.17546283669731
 20
-47.06893500579588
 30
0.0
 40
0.5
 41
9.609171224198007
 46
0.0
 71
     5
 72
     5
  1
\pi-1.5,l2,t4;APPROX.^I6"\P\pi0,l0,tz;(15.2 CM)
  7
DIMS
 73
     1
 44
1.0
1001
ACAD
1000
ACAD_MTEXT_COLUMN_INFO_BEGIN
1070
    75
1070
     2
1070
    79
1070
     0
1070
    76
1070
     1
1070
    78
1070
     0
1070
    48
1040
9.609171224198007
1070
    49
1040
60.5201024220279
1070
    50
1070
     1
1040
0.0
1000
ACAD_MTEXT_COLUMN_INFO_END
  0
CIRCLE
  5
AC64B
330
1F
100
AcDbEntity
  8
HI Text
100
AcDbCircle
 10
-21.12614866101961
 20
-28.36929370194645
 30
0.0
 40
0.511352622321557
  0
LEADER
  5
AC64C
330
1F
100
AcDbEntity
  8
HI Text
100
AcDbLeader
  3
LandMatters
 76
     3
 10
-31.38595827979337
 20
-39.49360346258281
 30
0.0
 10
-22.21764633103123
 20
-28.36929370194642
 30
0.0
 10
-21.63750128334117
 20
-28.36929370194646
 30
0.0
211
-0.0000000000000002
221
-1.0
231
0.0
1001
ACAD
1000
DSTYLE
1002
{
1070
    41
1040
0.5
1002
}
  0
MTEXT
  5
AC64D
330
1F
100
AcDbEntity
  8
HI Text
100
AcDbMText
 10
-21.04317031323807
 20
-28.33894020029217
 30
0.0
 40
0.5
 41
0.0
 46
0.0
 71
     6
 72
     1
  1
{\fArial|b0|i0|c0|p34;1}
  7
Hunter
 73
     1
 44
1.0
  0
MTEXT
  5
AC64E
330
1F
100
AcDbEntity
  8
HI Text
100
AcDbMText
 10
-21.0340285252785
 20
-29.36156372151962
 30
0.0
 40
0.5
 41
0.5059889325313582
 46
0.0
 71
     6
 72
     1
  1
{\fArial|b0|i0|c0|p34;2}
  7
Hunter
 73
     1
 44
1.0
  0
CIRCLE
  5
AC64F
330
1F
100
AcDbEntity
  8
HI Text
100
AcDbCircle
 10
-21.11700687306003
 20
-29.39191722317389
 30
0.0
 40
0.511352622321557
  0
LEADER
  5
AC650
330
1F
100
AcDbEntity
  8
HI Text
100
AcDbLeader
  3
LandMatters
 76
     3
 10
-24.5577754735524
 20
-34.15586969198233
 30
0.0
 10
-22.25027939748931
 20
-29.39191722317385
 30
0.0
 10
-21.62835949538159
 20
-29.39191722317389
 30
0.0
211
-0.0000000000000002
221
-1.0
231
0.0
1001
ACAD
1000
DSTYLE
1002
{
1070
    41
1040
0.5
1002
}
  0
MTEXT
  5
AC651
330
1F
100
AcDbEntity
  8
HI Text
100
AcDbMText
 10
-21.01873818423703
 20
-30.38715436078135
 30
0.0
 40
0.5
 41
0.5059889325313582
 46
0.0
 71
     6
 72
     1
  1
{\fArial|b0|i0|c0|p34;3}
  7
Hunter
 73
     1
 44
1.0
  0
CIRCLE
  5
AC652
330
1F
100
AcDbEntity
  8
HI Text
100
AcDbCircle
 10
-21.10171653201856
 20
-30.41750786243563
 30
0.0
 40
0.511352622321557
  0
LEADER
  5
AC653
330
1F
100
AcDbEntity
  8
HI Text
100
AcDbLeader
  3
LandMatters
 76
     3
 10
-24.79968602692892
 20
-38.47425506997378
 30
0.0
 10
-22.23498905644785
 20
-30.41750786243559
 30
0.0
 10
-21.61306915434012
 20
-30.41750786243563
 30
0.0
211
-0.0000000000000002
221
-1.0
231
0.0
1001
ACAD
1000
DSTYLE
1002
{
1070
    41
1040
0.5
1002
}
  0
MTEXT
  5
AC654
330
1F
100
AcDbEntity
  8
HI Text
100
AcDbMText
 10
-14.30562206589322
 20
-37.97061142920763
 30
0.0
 40
0.5
 41
0.5059889325313582
 46
0.0
 71
     6
 72
     1
  1
{\fArial|b0|i0|c0|p34;4}
  7
Hunter
 73
     1
 44
1.0
  0
CIRCLE
  5
AC655
330
1F
100
AcDbEntity
  8
HI Text
100
AcDbCircle
 10
-14.38860041367476
 20
-38.0009649308619
 30
0.0
 40
0.511352622321557
  0
LEADER
  5
AC656
330
1F
100
AcDbEntity
  8
HI Text
100
AcDbLeader
  3
LandMatters
 76
     3
 10
-20.38774984724637
 20
-35.7359069805039
 30
0.0
 10
-15.52187293810404
 20
-38.00096493086186
 30
0.0
 10
-14.89995303599632
 20
-38.0009649308619
 30
0.0
211
-0.0000000000000002
221
-1.0
231
0.0
1001
ACAD
1000
DSTYLE
1002
{
1070
    41
1040
0.5
1002
}
  0
MTEXT
  5
AC657
330
1F
100
AcDbEntity
  8
HI Text
100
AcDbMText
 10
-14.29033172485176
 20
-38.99620206846936
 30
0.0
 40
0.5
 41
0.5059889325313582
 46
0.0
 71
     6
 72
     1
  1
{\fArial|b0|i0|c0|p34;5}
  7
Hunter
 73
     1
 44
1.0
  0
CIRCLE
  5
AC658
330
1F
100
AcDbEntity
  8
HI Text
100
AcDbCircle
 10
-14.37331007263329
 20
-39.02655557012364
 30
0.0
 40
0.511352622321557
  0
LEADER
  5
AC659
330
1F
100
AcDbEntity
  8
HI Text
100
AcDbLeader
  3
LandMatters
 76
     3
 10
-21.34775397665601
 20
-38.308460744961
 30
0.0
 10
-15.50658259706257
 20
-39.0265555701236
 30
0.0
 10
-14.88466269495485
 20
-39.02655557012364
 30
0.0
211
-0.0000000000000002
221
-1.0
231
0.0
1001
ACAD
1000
DSTYLE
1002
{
1070
    41
1040
0.5
1002
}
  0
MTEXT
  5
AC65A
330
1F
100
AcDbEntity
  8
HI Text
100
AcDbMText
 10
-14.29033172485176
 20
-40.01890731311248
 30
0.0
 40
0.5
 41
0.5059889325313582
 46
0.0
 71
     6
 72
     1
  1
{\fArial|b0|i0|c0|p34;6}
  7
Hunter
 73
     1
 44
1.0
  0
CIRCLE
  5
AC65B
330
1F
100
AcDbEntity
  8
HI Text
100
AcDbCircle
 10
-14.37331007263329
 20
-40.04926081476675
 30
0.0
 40
0.511352622321557
  0
LEADER
  5
AC65C
330
1F
100
AcDbEntity
  8
HI Text
100
AcDbLeader
  3
LandMatters
 76
     3
 10
-20.93934569918054
 20
-42.1089908899429
 30
0.0
 10
-15.50658259706257
 20
-40.04926081476671
 30
0.0
 10
-14.88466269495485
 20
-40.04926081476675
 30
0.0
211
-0.0000000000000002
221
-1.0
231
0.0
1001
ACAD
1000
DSTYLE
1002
{
1070
    41
1040
0.5
1002
}
  0
LWPOLYLINE
  5
AC65E
330
1F
100
AcDbEntity
  8
HI Deatil 1
370
   100
100
AcDbPolyline
 90
       26
 70
     0
 43
0.0
 10
-36.9219039832025
 20
-39.62971722746812
 10
-37.05236342948726
 20
-39.63078305478767
 10
-37.19700924387119
 20
-39.62275139770064
 10
-37.37141022910775
 20
-39.60624919026833
 10
-37.52546440706411
 20
-39.60298057151245
 10
-37.68004031168127
 20
-39.61070505019403
 10
-37.97385150604308
 20
-39.61224308228407
 10
-38.21788817260822
 20
-39.61025070017836
 10
-38.5039718752947
 20
-39.59771615278003
 10
-38.70808484609618
 20
-39.59790459397378
 10
-38.96448576472248
 20
-39.63295177178958
 10
-39.23019287523986
 20
-39.64934448841179
 10
-39.49623446716098
 20
-39.63862642701876
 10
-39.72958473422202
 20
-39.55475061008666
 10
-40.00480063531288
 20
-39.5211599316422
 10
-40.29409295112655
 20
-39.5211599316422
 10
-40.65570714356338
 20
-39.5211599316422
 10
-40.98836975701457
 20
-39.52477982227462
 10
-41.74595381439756
 20
-39.53212626056249
 10
-42.24175772988028
 20
-39.55174291754052
 10
-42.63345406959294
 20
-39.57459325391868
 10
-43.27263699384216
 20
-39.57626403580155
 10
-43.66100916282776
 20
-39.55097679596604
 10
-44.07279570013449
 20
-39.56155136484493
 10
-44.5996335046834
 20
-39.58110528730195
 10
-45.64711559082391
 20
-39.6269738720776
  0
LWPOLYLINE
  5
AC65F
330
1F
100
AcDbEntity
  8
HI Deatil 2
100
AcDbPolyline
 90
        3
 70
     0
 43
0.0
 10
-23.24566197058945
 20
-37.23247565977349
 10
-23.24566197058945
 20
-34.23247565977348
 10
-18.08904142096455
 20
-34.23247565977348
  0
LWPOLYLINE
  5
AC660
330
1F
100
AcDbEntity
  8
HI Deatil 2
100
AcDbPolyline
 90
        3
 70
     0
 43
0.0
 10
-23.24566197058945
 20
-37.23247565977349
 10
-23.24566197058945
 20
-37.23247565977349
 10
-18.08904142096457
 20
-37.23247565977349
  0
HATCH
  5
AC662
330
1F
100
AcDbEntity
  8
HI HATCH FILL
100
AcDbHatch
 10
0.0
 20
0.0
 30
0.0
210
0.0
220
0.0
230
1.0
  2
AR-CONC
 70
     0
 71
     0
 91
        1
 92
        1
 93
        6
 72
     1
 10
-18.08904142096455
 20
-34.23247565977348
 11
-23.24566197058945
 21
-34.23247565977348
 72
     1
 10
-23.24566197058945
 20
-34.23247565977348
 11
-23.24566197058945
 21
-37.23247565977349
 72
     1
 10
-23.24566197058945
 20
-37.23247565977349
 11
-21.4365651864137
 21
-37.23247565977349
 72
     1
 10
-21.4365651864137
 20
-37.23247565977349
 11
-20.24566197058945
 21
-37.23247565977349
 72
     1
 10
-20.24566197058945
 20
-37.23247565977349
 11
-18.08904142096457
 21
-37.23247565977349
 72
     1
 10
-18.08904142096457
 20
-37.23247565977349
 11
-18.08904142096455
 21
-34.23247565977348
 97
        0
 75
     1
 76
     1
 52
0.0
 41
0.5
 77
     0
 78
    13
 53
50.0
 43
-23.24566197058945
 44
-41.84479522097126
 45
3.586300913003767
 46
-0.3137606749129755
 79
     2
 49
0.375
 49
-4.125
 53
355.0
 43
-23.24566197058945
 44
-41.84479522097126
 45
-0.6937566680650001
 46
3.760960668500059
 79
     2
 49
0.3
 49
-3.299999999999999
 53
100.45144446
 43
-22.94680356558945
 44
-41.87094194097126
 45
2.892544233635559
 46
3.447199954843147
 79
     2
 49
0.3187009599999998
 49
-3.505710559999998
 53
46.18420000000001
 43
-23.24566197058945
 44
-40.84479522097126
 45
5.336206653357861
 46
-0.8275964039653826
 79
     2
 49
0.5624999999999997
 49
-6.187499999999997
 53
96.63563549000002
 43
-22.80097824558945
 44
-40.91376175597126
 45
4.673309728371141
 46
4.870593003872752
 79
     2
 49
0.47805171
 49
-5.258568799999999
 53
351.18416399
 43
-23.24566197058945
 44
-40.84479522097126
 45
4.673309725273865
 46
4.87059300134995
 79
     2
 49
0.45
 49
-4.950000004999999
 53
21.0
 43
-22.74566197058945
 44
-41.09479522097126
 45
2.984535260592308
 46
-2.013094453326694
 79
     2
 49
0.375
 49
-4.125
 53
326.0
 43
-22.74566197058945
 44
-41.09479522097126
 45
1.216576659607908
 46
3.625750225234265
 79
     2
 49
0.3
 49
-3.299999999999999
 53
71.45144474
 43
-22.49695070058944
 44
-41.26255309097127
 45
4.201111883649855
 46
1.612655764031769
 79
     2
 49
0.31870095
 49
-3.505710559999999
 53
37.5
 43
-23.24566197058945
 44
-41.84479522097126
 45
0.0607992765864534
 46
1.664469269156557
 79
     6
 49
0.0
 49
-3.259999999999999
 49
0.0
 49
-3.35
 49
0.0
 49
-3.3125
 53
7.499999999999999
 43
-23.24566197058945
 44
-41.84479522097126
 45
1.315347687210743
 46
1.972058559411801
 79
     6
 49
0.0
 49
-1.909999999999999
 49
0.0
 49
-3.185
 49
0.0
 49
-1.262499999999999
 53
327.5
 43
-24.36066197058945
 44
-41.84479522097126
 45
2.669112180862045
 46
-0.1127743586718988
 79
     6
 49
0.0
 49
-1.25
 49
0.0
 49
-3.9
 49
0.0
 49
-5.174999999999999
 53
317.5
 43
-24.86066197058945
 44
-41.84479522097126
 45
2.915930846711931
 46
0.5005249116615886
 79
     6
 49
0.0
 49
-1.625
 49
0.0
 49
-2.589999999999999
 49
0.0
 49
-3.674999999999999
 98
        1
 10
-61.04672015443611
 20
0.0
1001
GradientColor1ACI
1070
     5
1001
GradientColor2ACI
1070
     2
1001
ACAD
1010
37.80105818384667
1020
-41.84479522097126
1030
0.0
  0
LWPOLYLINE
  5
AC663
102
{ACAD_REACTORS
330
AC679
102
}
330
1F
100
AcDbEntity
  8
HI Detail 3
100
AcDbPolyline
 90
        2
 70
     0
 43
0.0
 10
-43.21605914376582
 20
-39.07132076764945
 10
-43.21605914376582
 20
-44.35025625976732
  0
LWPOLYLINE
  5
AC664
102
{ACAD_REACTORS
330
AC679
102
}
330
1F
100
AcDbEntity
  8
HI Detail 3
100
AcDbPolyline
 90
        2
 70
     0
 43
0.0
 10
-42.08782334397399
 20
-39.07132076764945
 10
-42.08782334397399
 20
-44.35025625976732
  0
ARC
  5
AC665
102
{ACAD_REACTORS
330
AC67A
102
}
330
1F
100
AcDbEntity
  8
HI Detail 3
100
AcDbCircle
 10
-33.72601270567422
 20
-39.04193397867335
 30
0.0
 40
0.5641178998959106
100
AcDbArc
 50
0.0
 51
180.0
  0
LWPOLYLINE
  5
AC666
102
{ACAD_REACTORS
330
AC67A
102
}
330
1F
100
AcDbEntity
  8
HI Detail 3
100
AcDbPolyline
 90
        2
 70
     0
 43
0.0
 10
-34.29013060557014
 20
-39.04193397867335
 10
-34.29013060557014
 20
-44.32086947079121
  0
LWPOLYLINE
  5
AC667
102
{ACAD_REACTORS
330
AC67A
102
}
330
1F
100
AcDbEntity
  8
HI Detail 3
100
AcDbPolyline
 90
        2
 70
     0
 43
0.0
 10
-33.16189480577832
 20
-39.04193397867335
 10
-33.16189480577832
 20
-44.32086947079121
  0
ARC
  5
AC668
102
{ACAD_REACTORS
330
AC67B
102
}
330
1F
100
AcDbEntity
  8
HI Detail 3
100
AcDbCircle
 10
-24.79968602692892
 20
-39.0383729698697
 30
0.0
 40
0.5641178998959106
100
AcDbArc
 50
0.0
 51
180.0
  0
LWPOLYLINE
  5
AC669
102
{ACAD_REACTORS
330
AC67B
102
}
330
1F
100
AcDbEntity
  8
HI Detail 3
100
AcDbPolyline
 90
        2
 70
     0
 43
0.0
 10
-25.36380392682483
 20
-39.0383729698697
 10
-25.36380392682483
 20
-44.31730846198756
  0
LWPOLYLINE
  5
AC66A
102
{ACAD_REACTORS
330
AC67B
102
}
330
1F
100
AcDbEntity
  8
HI Detail 3
100
AcDbPolyline
 90
        2
 70
     0
 43
0.0
 10
-24.23556812703301
 20
-39.0383729698697
 10
-24.23556812703301
 20
-44.31730846198756
  0
CIRCLE
  5
AC672
330
1F
100
AcDbEntity
  8
HI Text
100
AcDbCircle
 10
-11.48733114393476
 20
-37.48866197588941
 30
0.0
 40
0.511352622321557
  0
MTEXT
  5
AC673
330
1F
100
AcDbEntity
  8
HI Text
100
AcDbMText
 10
-11.41663520785246
 20
-37.45830847423513
 30
0.0
 40
0.5
 41
0.2318212824010922
 46
0.0
 71
     6
 72
     1
  1
{\fArial|b0|i0|c0|p34;5}
  7
Hunter
 73
     1
 44
1.0
  0
MTEXT
  5
AC675
330
1F
100
AcDbEntity
  8
HI Text
100
AcDbMText
 10
-14.29033172485176
 20
-41.0416125577556
 30
0.0
 40
0.5
 41
0.5059889325313582
 46
0.0
 71
     6
 72
     1
  1
{\fArial|b0|i0|c0|p34;7}
  7
Hunter
 73
     1
 44
1.0
  0
CIRCLE
  5
AC676
330
1F
100
AcDbEntity
  8
HI Text
100
AcDbCircle
 10
-14.37331007263329
 20
-41.07196605940987
 30
0.0
 40
0.511352622321557
  0
LEADER
  5
AC677
330
1F
100
AcDbEntity
  8
HI Text
100
AcDbLeader
  3
LandMatters
 76
     3
 10
-19.90246403639435
 20
-44.87285461888592
 30
0.0
 10
-15.50658259706257
 20
-41.07196605940983
 30
0.0
 10
-14.88466269495485
 20
-41.07196605940987
 30
0.0
211
-0.0000000000000002
221
-1.0
231
0.0
1001
ACAD
1000
DSTYLE
1002
{
1070
    41
1040
0.5
1002
}
  0
MTEXT
  5
AC678
330
1F
100
AcDbEntity
  8
HI Text
100
AcDbMText
 10
-10.86652241119817
 20
-44.35841340481776
 30
0.0
 40
0.5
 41
14.36766712141882
 46
0.0
 71
     1
 72
     1
  1
\A1;{\fArial|b0|i0|c0|p34;NOTES \PRECOMMENDED INSTALLATION DEPTH BY PLANT TYPE\PTURF AREAS: 4" - 8" (10.2 CM - 20.4 CM)\PGROUND COVER AREAS: 6" - 8" (15.2 CM - 20.4 CM)\PSHRUB AREAS: 12" (30.5 CM) }
  7
Hunter
 73
     1
 44
1.0
  0
LWPOLYLINE
  5
AC67C
330
1F
100
AcDbEntity
  8
HI Deatil 2
100
AcDbPolyline
 90
        3
 70
     0
 43
0.0
 10
-45.45269253577858
 20
-37.23247565977342
 10
-45.45269253577858
 20
-34.23247565977341
 10
-40.29607198615368
 20
-34.23247565977341
  0
LWPOLYLINE
  5
AC67D
330
1F
100
AcDbEntity
  8
HI Deatil 2
100
AcDbPolyline
 90
        3
 70
     0
 43
0.0
 10
-45.45269253577858
 20
-37.23247565977342
 10
-45.45269253577858
 20
-37.23247565977342
 10
-40.2960719861537
 20
-37.23247565977342
  0
HATCH
  5
AC67E
330
1F
100
AcDbEntity
  8
HI HATCH FILL
100
AcDbHatch
 10
0.0
 20
0.0
 30
0.0
210
0.0
220
0.0
230
1.0
  2
AR-CONC
 70
     0
 71
     0
 91
        1
 92
        1
 93
        6
 72
     1
 10
-40.29607198615368
 20
-34.23247565977341
 11
-45.45269253577858
 21
-34.23247565977341
 72
     1
 10
-45.45269253577858
 20
-34.23247565977341
 11
-45.45269253577858
 21
-37.23247565977342
 72
     1
 10
-45.45269253577858
 20
-37.23247565977342
 11
-43.64359575160284
 21
-37.23247565977342
 72
     1
 10
-43.64359575160284
 20
-37.23247565977342
 11
-42.45269253577858
 21
-37.23247565977342
 72
     1
 10
-42.45269253577858
 20
-37.23247565977342
 11
-40.2960719861537
 21
-37.23247565977342
 72
     1
 10
-40.2960719861537
 20
-37.23247565977342
 11
-40.29607198615368
 21
-34.23247565977341
 97
        0
 75
     1
 76
     1
 52
0.0
 41
0.5
 77
     0
 78
    13
 53
50.0
 43
-45.45269253577858
 44
-41.84479522097119
 45
3.586300913003767
 46
-0.3137606749129755
 79
     2
 49
0.375
 49
-4.125
 53
355.0
 43
-45.45269253577858
 44
-41.84479522097119
 45
-0.6937566680650001
 46
3.760960668500059
 79
     2
 49
0.3
 49
-3.299999999999999
 53
100.45144446
 43
-45.15383413077858
 44
-41.87094194097119
 45
2.892544233635559
 46
3.447199954843147
 79
     2
 49
0.3187009599999997
 49
-3.505710559999998
 53
46.18420000000001
 43
-45.45269253577858
 44
-40.84479522097119
 45
5.336206653357861
 46
-0.8275964039653826
 79
     2
 49
0.5624999999999996
 49
-6.187499999999996
 53
96.63563549000002
 43
-45.00800881077858
 44
-40.91376175597119
 45
4.673309728371141
 46
4.870593003872752
 79
     2
 49
0.47805171
 49
-5.258568799999999
 53
351.18416399
 43
-45.45269253577858
 44
-40.84479522097119
 45
4.673309725273865
 46
4.87059300134995
 79
     2
 49
0.45
 49
-4.950000004999999
 53
21.0
 43
-44.95269253577858
 44
-41.09479522097119
 45
2.984535260592308
 46
-2.013094453326694
 79
     2
 49
0.375
 49
-4.125
 53
326.0
 43
-44.95269253577858
 44
-41.09479522097119
 45
1.216576659607908
 46
3.625750225234265
 79
     2
 49
0.3
 49
-3.299999999999999
 53
71.45144474
 43
-44.70398126577857
 44
-41.26255309097119
 45
4.201111883649855
 46
1.612655764031769
 79
     2
 49
0.31870095
 49
-3.505710559999999
 53
37.5
 43
-45.45269253577858
 44
-41.84479522097119
 45
0.0607992765864534
 46
1.664469269156557
 79
     6
 49
0.0
 49
-3.259999999999999
 49
0.0
 49
-3.35
 49
0.0
 49
-3.3125
 53
7.499999999999999
 43
-45.45269253577858
 44
-41.84479522097119
 45
1.315347687210743
 46
1.972058559411801
 79
     6
 49
0.0
 49
-1.909999999999999
 49
0.0
 49
-3.185
 49
0.0
 49
-1.262499999999999
 53
327.5
 43
-46.56769253577858
 44
-41.84479522097119
 45
2.669112180862045
 46
-0.1127743586718988
 79
     6
 49
0.0
 49
-1.25
 49
0.0
 49
-3.9
 49
0.0
 49
-5.174999999999999
 53
317.5
 43
-47.06769253577858
 44
-41.84479522097119
 45
2.915930846711931
 46
0.5005249116615886
 79
     6
 49
0.0
 49
-1.625
 49
0.0
 49
-2.589999999999999
 49
0.0
 49
-3.674999999999999
 98
        1
 10
-83.25375071962525
 20
0.0000000000000711
1001
GradientColor1ACI
1070
     5
1001
GradientColor2ACI
1070
     2
1001
ACAD
1010
37.80105818384667
1020
-41.84479522097126
1030
0.0
  0
LWPOLYLINE
  5
AC67F
330
1F
100
AcDbEntity
  8
HI Deatil 2
100
AcDbPolyline
 90
        2
 70
     0
 43
0.0
 10
-40.29607198615368
 20
-34.23247565977341
 10
-40.29607198615368
 20
-37.23247565977342
  0
LWPOLYLINE
  5
AC69F
330
1F
100
AcDbEntity
  8
HI Deatil 2
100
AcDbPolyline
 90
        3
 70
     0
 43
0.0
 10
-38.12269253577858
 20
-37.23247565977342
 10
-38.12269253577858
 20
-37.23247565977342
 10
-32.96607198615371
 20
-37.23247565977342
  0
HATCH
  5
AC6A0
330
1F
100
AcDbEntity
  8
HI HATCH FILL
100
AcDbHatch
 10
0.0
 20
0.0
 30
0.0
210
0.0
220
0.0
230
1.0
  2
AR-CONC
 70
     0
 71
     0
 91
        1
 92
        1
 93
        6
 72
     1
 10
-32.96607198615369
 20
-34.23247565977341
 11
-38.12269253577858
 21
-34.23247565977341
 72
     1
 10
-38.12269253577858
 20
-34.23247565977341
 11
-38.12269253577858
 21
-37.23247565977342
 72
     1
 10
-38.12269253577858
 20
-37.23247565977342
 11
-36.31359575160284
 21
-37.23247565977342
 72
     1
 10
-36.31359575160284
 20
-37.23247565977342
 11
-35.12269253577859
 21
-37.23247565977342
 72
     1
 10
-35.12269253577859
 20
-37.23247565977342
 11
-32.96607198615371
 21
-37.23247565977342
 72
     1
 10
-32.96607198615371
 20
-37.23247565977342
 11
-32.96607198615369
 21
-34.23247565977341
 97
        0
 75
     1
 76
     1
 52
0.0
 41
0.5
 77
     0
 78
    13
 53
50.0
 43
-38.12269253577858
 44
-41.84479522097119
 45
3.586300913003767
 46
-0.3137606749129755
 79
     2
 49
0.375
 49
-4.125
 53
355.0
 43
-38.12269253577858
 44
-41.84479522097119
 45
-0.6937566680650001
 46
3.760960668500059
 79
     2
 49
0.3
 49
-3.299999999999999
 53
100.45144446
 43
-37.82383413077859
 44
-41.87094194097119
 45
2.892544233635559
 46
3.447199954843147
 79
     2
 49
0.3187009599999997
 49
-3.505710559999997
 53
46.18420000000001
 43
-38.12269253577858
 44
-40.84479522097119
 45
5.336206653357861
 46
-0.8275964039653826
 79
     2
 49
0.5624999999999995
 49
-6.187499999999995
 53
96.63563549000002
 43
-37.67800881077859
 44
-40.91376175597119
 45
4.673309728371141
 46
4.870593003872752
 79
     2
 49
0.47805171
 49
-5.258568799999999
 53
351.18416399
 43
-38.12269253577858
 44
-40.84479522097119
 45
4.673309725273865
 46
4.87059300134995
 79
     2
 49
0.45
 49
-4.950000004999999
 53
21.0
 43
-37.62269253577859
 44
-41.09479522097119
 45
2.984535260592308
 46
-2.013094453326694
 79
     2
 49
0.375
 49
-4.125
 53
326.0
 43
-37.62269253577859
 44
-41.09479522097119
 45
1.216576659607908
 46
3.625750225234265
 79
     2
 49
0.3
 49
-3.299999999999999
 53
71.45144474
 43
-37.37398126577858
 44
-41.26255309097119
 45
4.201111883649855
 46
1.612655764031769
 79
     2
 49
0.31870095
 49
-3.505710559999999
 53
37.5
 43
-38.12269253577858
 44
-41.84479522097119
 45
0.0607992765864534
 46
1.664469269156557
 79
     6
 49
0.0
 49
-3.259999999999999
 49
0.0
 49
-3.35
 49
0.0
 49
-3.3125
 53
7.499999999999999
 43
-38.12269253577858
 44
-41.84479522097119
 45
1.315347687210743
 46
1.972058559411801
 79
     6
 49
0.0
 49
-1.909999999999999
 49
0.0
 49
-3.185
 49
0.0
 49
-1.262499999999999
 53
327.5
 43
-39.23769253577859
 44
-41.84479522097119
 45
2.669112180862045
 46
-0.1127743586718988
 79
     6
 49
0.0
 49
-1.25
 49
0.0
 49
-3.9
 49
0.0
 49
-5.174999999999999
 53
317.5
 43
-39.73769253577859
 44
-41.84479522097119
 45
2.915930846711931
 46
0.5005249116615886
 79
     6
 49
0.0
 49
-1.625
 49
0.0
 49
-2.589999999999999
 49
0.0
 49
-3.674999999999999
 98
        1
 10
-75.92375071962526
 20
0.0000000000000711
1001
GradientColor1ACI
1070
     5
1001
GradientColor2ACI
1070
     2
1001
ACAD
1010
37.80105818384667
1020
-41.84479522097126
1030
0.0
  0
LWPOLYLINE
  5
AC6A1
330
1F
100
AcDbEntity
  8
HI Deatil 2
100
AcDbPolyline
 90
        2
 70
     0
 43
0.0
 10
-32.96607198615369
 20
-34.23247565977341
 10
-32.96607198615369
 20
-37.23247565977342
  0
LWPOLYLINE
  5
AC6A2
330
1F
100
AcDbEntity
  8
HI Deatil 2
100
AcDbPolyline
 90
        3
 70
     0
 43
0.0
 10
-30.57566197058945
 20
-37.23247565977342
 10
-30.57566197058945
 20
-37.23247565977342
 10
-25.41904142096457
 20
-37.23247565977342
  0
HATCH
  5
AC6A3
330
1F
100
AcDbEntity
  8
HI HATCH FILL
100
AcDbHatch
 10
0.0
 20
0.0
 30
0.0
210
0.0
220
0.0
230
1.0
  2
AR-CONC
 70
     0
 71
     0
 91
        1
 92
        1
 93
        6
 72
     1
 10
-25.41904142096456
 20
-34.23247565977341
 11
-30.57566197058945
 21
-34.23247565977341
 72
     1
 10
-30.57566197058945
 20
-34.23247565977341
 11
-30.57566197058945
 21
-37.23247565977342
 72
     1
 10
-30.57566197058945
 20
-37.23247565977342
 11
-28.7665651864137
 21
-37.23247565977342
 72
     1
 10
-28.7665651864137
 20
-37.23247565977342
 11
-27.57566197058944
 21
-37.23247565977342
 72
     1
 10
-27.57566197058944
 20
-37.23247565977342
 11
-25.41904142096457
 21
-37.23247565977342
 72
     1
 10
-25.41904142096457
 20
-37.23247565977342
 11
-25.41904142096456
 21
-34.23247565977341
 97
        0
 75
     1
 76
     1
 52
0.0
 41
0.5
 77
     0
 78
    13
 53
50.0
 43
-30.57566197058945
 44
-41.84479522097119
 45
3.586300913003767
 46
-0.3137606749129755
 79
     2
 49
0.375
 49
-4.125
 53
355.0
 43
-30.57566197058945
 44
-41.84479522097119
 45
-0.6937566680650001
 46
3.760960668500059
 79
     2
 49
0.3
 49
-3.299999999999999
 53
100.45144446
 43
-30.27680356558945
 44
-41.87094194097119
 45
2.892544233635559
 46
3.447199954843147
 79
     2
 49
0.3187009599999997
 49
-3.505710559999997
 53
46.18420000000001
 43
-30.57566197058945
 44
-40.84479522097119
 45
5.336206653357861
 46
-0.8275964039653826
 79
     2
 49
0.5624999999999995
 49
-6.187499999999995
 53
96.63563549000002
 43
-30.13097824558945
 44
-40.91376175597119
 45
4.673309728371141
 46
4.870593003872752
 79
     2
 49
0.47805171
 49
-5.258568799999999
 53
351.18416399
 43
-30.57566197058945
 44
-40.84479522097119
 45
4.673309725273865
 46
4.87059300134995
 79
     2
 49
0.45
 49
-4.950000004999999
 53
21.0
 43
-30.07566197058944
 44
-41.09479522097119
 45
2.984535260592308
 46
-2.013094453326694
 79
     2
 49
0.375
 49
-4.125
 53
326.0
 43
-30.07566197058944
 44
-41.09479522097119
 45
1.216576659607908
 46
3.625750225234265
 79
     2
 49
0.3
 49
-3.299999999999999
 53
71.45144474
 43
-29.82695070058944
 44
-41.26255309097119
 45
4.201111883649855
 46
1.612655764031769
 79
     2
 49
0.31870095
 49
-3.505710559999999
 53
37.5
 43
-30.57566197058945
 44
-41.84479522097119
 45
0.0607992765864534
 46
1.664469269156557
 79
     6
 49
0.0
 49
-3.259999999999999
 49
0.0
 49
-3.35
 49
0.0
 49
-3.3125
 53
7.499999999999999
 43
-30.57566197058945
 44
-41.84479522097119
 45
1.315347687210743
 46
1.972058559411801
 79
     6
 49
0.0
 49
-1.909999999999999
 49
0.0
 49
-3.185
 49
0.0
 49
-1.262499999999999
 53
327.5
 43
-31.69066197058945
 44
-41.84479522097119
 45
2.669112180862045
 46
-0.1127743586718988
 79
     6
 49
0.0
 49
-1.25
 49
0.0
 49
-3.9
 49
0.0
 49
-5.174999999999999
 53
317.5
 43
-32.19066197058945
 44
-41.84479522097119
 45
2.915930846711931
 46
0.5005249116615886
 79
     6
 49
0.0
 49
-1.625
 49
0.0
 49
-2.589999999999999
 49
0.0
 49
-3.674999999999999
 98
        1
 10
-68.37672015443613
 20
0.0000000000000711
1001
GradientColor1ACI
1070
     5
1001
GradientColor2ACI
1070
     2
1001
ACAD
1010
37.80105818384667
1020
-41.84479522097126
1030
0.0
  0
LWPOLYLINE
  5
AC6A4
330
1F
100
AcDbEntity
  8
HI Deatil 2
100
AcDbPolyline
 90
        2
 70
     0
 43
0.0
 10
-25.41904142096456
 20
-34.23247565977341
 10
-25.41904142096456
 20
-37.23247565977342
  0
LWPOLYLINE
  5
AC6A5
330
1F
100
AcDbEntity
  8
HI Deatil 2
100
AcDbPolyline
 90
        3
 70
     0
 43
0.0
 10
-38.12269253577857
 20
-37.23247565977342
 10
-38.12269253577857
 20
-34.23247565977341
 10
-32.96607198615368
 20
-34.23247565977341
  0
LWPOLYLINE
  5
AC6A6
330
1F
100
AcDbEntity
  8
HI Deatil 2
100
AcDbPolyline
 90
        3
 70
     0
 43
0.0
 10
-30.57566197058943
 20
-37.23247565977342
 10
-30.57566197058943
 20
-34.23247565977341
 10
-25.41904142096454
 20
-34.23247565977341
  0
LINE
  5
AC6A7
330
1F
100
AcDbEntity
  8
HI Deatil 2
100
AcDbLine
 10
-32.96607198615369
 20
-34.78617051051293
 30
0.0
 11
-30.57566197058943
 21
-34.78617051051293
 31
0.0
  0
LINE
  5
AC6A8
330
1F
100
AcDbEntity
  8
HI Deatil 2
100
AcDbLine
 10
-25.41904142096456
 20
-34.78617051051293
 30
0.0
 11
-23.24566197058945
 21
-34.78617051051293
 31
0.0
  0
LWPOLYLINE
  5
AC6B3
330
1F
100
AcDbEntity
  8
HI Deatil 1
370
   100
100
AcDbPolyline
 90
       37
 70
     0
 43
0.0
 10
-23.51045910846301
 20
-39.47529976892042
 10
-23.95087508858726
 20
-39.45947279396465
 10
-23.95087508858726
 20
-39.45947279396465
 10
-24.67887914361209
 20
-39.51719496930552
 10
-25.34910484508451
 20
-39.50565062928966
 10
-26.11177567522336
 20
-39.48256171162716
 10
-26.72702634786865
 20
-39.49378976509967
 10
-27.2008071878764
 20
-39.51687868276217
 10
-27.95192222879607
 20
-39.50533410511558
 10
-28.6683704946016
 20
-39.52842302277803
 10
-29.44259652141589
 20
-39.47070084743721
 10
-30.01083950919085
 20
-39.50514804022946
 10
-30.54315597372963
 20
-39.53596874997315
 10
-31.38595827979337
 20
-39.49360346258281
 10
-32.10208064650815
 20
-39.48686092736101
 10
-32.47218646772112
 20
-39.52823695789196
 10
-33.44285794854373
 20
-39.50796230133584
 10
-34.29797390734903
 20
-39.50274583086325
 10
-35.40125677210566
 20
-39.47144082806175
 10
-35.79376928946395
 20
-39.42376246164786
 10
-36.18752760691562
 20
-39.36754086203858
 10
-36.51699904842915
 20
-39.35950920495155
 10
-36.75807517672045
 20
-39.35950920495155
 10
-37.01522405456499
 20
-39.36754086203858
 10
-37.20808468237963
 20
-39.36754086203858
 10
-37.3446948090327
 20
-39.34344589077749
 10
-37.51344837365489
 20
-39.34344589077749
 10
-37.67416625054623
 20
-39.35147754786452
 10
-37.8830989408684
 20
-39.35147754786452
 10
-38.09203231823629
 20
-39.35147754786452
 10
-38.28489363309675
 20
-39.35147754786452
 10
-38.55811319935706
 20
-39.33541423369046
 10
-38.74293882648679
 20
-39.34344589077749
 10
-38.97597926704712
 20
-39.37557251912561
 10
-39.27330727059164
 20
-39.39163583329973
 10
-39.27330727059164
 20
-39.39163583329973
 10
-39.27330727059164
 20
-39.39163583329973
  0
LWPOLYLINE
  5
AC6B4
330
1F
100
AcDbEntity
  8
HI Dimensions
100
AcDbPolyline
 90
        2
 70
     0
 43
0.075
 10
-37.25671519054767
 20
-45.52972388240951
 10
-36.75671519054767
 20
-46.02972388240951
  0
LWPOLYLINE
  5
AC6B5
330
1F
100
AcDbEntity
  8
HI Dimensions
100
AcDbPolyline
 90
        2
 70
     0
 43
0.075
 10
-39.53914675653881
 20
-45.52972388240951
 10
-39.03914675653881
 20
-46.02972388240951
  0
LINE
  5
AC6B6
330
1F
100
AcDbEntity
  8
HI Dimensions
100
AcDbLine
 10
-39.69749298524862
 20
-45.77972388240951
 30
0.0
 11
-36.653432688146
 21
-45.77972388240951
 31
0.0
  0
LINE
  5
AC6B7
330
1F
100
AcDbEntity
  8
HI Dimensions
100
AcDbLine
 10
-39.28914675653881
 20
-39.87225559226101
 30
0.0
 11
-39.28914675653881
 21
-46.20931531385948
 31
0.0
  0
LINE
  5
AC6B8
330
1F
100
AcDbEntity
  8
HI Dimensions
100
AcDbLine
 10
-37.00671519054767
 20
-39.87225559226101
 30
0.0
 11
-37.00671519054767
 21
-46.20931531385948
 31
0.0
  0
LWPOLYLINE
  5
AC6B9
102
{ACAD_REACTORS
330
AC6C4
102
}
330
1F
100
AcDbEntity
  8
HI Detail 3
100
AcDbPolyline
 90
        2
 70
     0
 43
0.0
 10
-45.45269253577862
 20
-44.06982790886014
 10
-18.08904142096459
 20
-44.06982790886023
  0
LWPOLYLINE
  5
AC6BB
330
1F
100
AcDbEntity
  8
HI Deatil 1
100
AcDbPolyline
 90
        2
 70
     0
 43
0.0
 10
-45.45269253577862
 20
-44.06982790886014
 10
-45.45269253577862
 20
-45.71465693905958
  0
LWPOLYLINE
  5
AC6BC
330
1F
100
AcDbEntity
  8
HI Deatil 1
100
AcDbPolyline
 90
        2
 70
     0
 43
0.0
 10
-45.45269253577862
 20
-45.71465693905958
 10
-45.45269253577862
 20
-46.42740101117169
  0
LWPOLYLINE
  5
AC6BD
330
1F
100
AcDbEntity
  8
HI Deatil 1
100
AcDbPolyline
 90
        2
 70
     0
 43
0.0
 10
-18.08904142096459
 20
-44.06982790886014
 10
-18.08904142096459
 20
-45.6351508884004
  0
LWPOLYLINE
  5
AC6BE
330
1F
100
AcDbEntity
  8
HI Deatil 1
100
AcDbPolyline
 90
        2
 70
     0
 43
0.0
 10
-18.08904142096459
 20
-45.6351508884004
 10
-18.0890414209646
 20
-46.42740101117169
  0
LWPOLYLINE
  5
AC6BF
102
{ACAD_REACTORS
330
AC6C4
102
}
330
1F
100
AcDbEntity
  8
HI Deatil 1
100
AcDbPolyline
 90
        2
 70
     0
 43
0.0
 10
-17.40258006623736
 20
-41.13624533697953
 10
-18.08904142096459
 20
-41.71225480654861
  0
LWPOLYLINE
  5
AC6C0
102
{ACAD_REACTORS
330
AC6C4
102
}
330
1F
100
AcDbEntity
  8
HI Deatil 1
100
AcDbPolyline
 90
        2
 70
     0
 43
0.0
 10
-44.76623118105139
 20
-41.13624533697953
 10
-45.45269253577862
 20
-41.71225480654861
  0
LWPOLYLINE
  5
AC6C1
330
1F
100
AcDbEntity
  8
HI Deatil 1
370
   100
100
AcDbPolyline
 90
        6
 70
     0
 43
0.0
 10
-23.51045910846301
 20
-39.47529976892042
 10
-22.66806337269111
 20
-39.47529976892042
 10
-21.6157391590105
 20
-39.55795076814871
 10
-20.61773000689886
 20
-39.49763119432407
 10
-19.86109999127967
 20
-39.49763119432407
 10
-18.66172091850926
 20
-39.30957903068595
  0
HATCH
  5
AC6C4
330
1F
100
AcDbEntity
  8
HI HATCH FILL
100
AcDbHatch
 10
0.0
 20
0.0
 30
0.0
210
0.0
220
0.0
230
1.0
  2
GRAVEL
 70
     0
 71
     1
 91
        1
 92
        1
 93
        6
 72
     1
 10
-44.76623118105139
 20
-41.13624533697953
 11
-17.40258006623736
 21
-41.13624533697953
 72
     1
 10
-17.40258006623736
 20
-41.13624533697953
 11
-18.08904142096459
 21
-41.71225480654861
 72
     1
 10
-18.08904142096458
 20
-41.7122548065486
 11
-18.08904142096459
 21
-44.06982790886023
 72
     1
 10
-18.08904142096459
 20
-44.06982790886023
 11
-45.45269253577862
 21
-44.06982790886014
 72
     1
 10
-45.45269253577862
 20
-44.06982790886014
 11
-45.45269253577861
 21
-41.7122548065486
 72
     1
 10
-45.45269253577862
 20
-41.71225480654861
 11
-44.76623118105139
 21
-41.13624533697953
 97
        6
330
AC627
330
AC6BF
330
AC63A
330
AC6B9
330
AC634
330
AC6C0
 75
     1
 76
     1
 52
0.0
 41
2.0
 77
     0
 78
    41
 53
228.012787504
 43
1.439999999999999
 44
2.0
 45
-16.00000000000012
 46
-18.0
 79
     2
 49
0.269072
 49
-26.6381760941474
 53
184.969740728
 43
1.26
 44
1.8
 45
23.99999999999995
 46
2.00000000000007
 79
     2
 49
0.461736
 49
-45.71184952245999
 53
132.510447078
 43
0.8
 44
1.759999999999999
 45
20.00000000000023
 46
-21.99999999999973
 79
     2
 49
0.325576
 49
-32.2320651921994
 53
267.273689006
 43
0.02
 44
1.26
 45
2.000000000000048
 46
40.00000000000003
 79
     2
 49
0.420476
 49
-41.62711608325799
 53
292.833654178
 43
0.0
 44
0.84
 45
-9.999999999999976
 46
24.00000000000006
 79
     2
 49
0.4123099999999999
 49
-40.81874625617659
 53
357.273689006
 43
0.16
 44
0.4600000000000001
 45
-40.00000000000003
 46
2.000000000000051
 79
     2
 49
0.420476
 49
-41.62711608325799
 53
37.6942404667
 43
0.58
 44
0.4400000000000001
 45
-26.0
 46
-19.99999999999994
 79
     2
 49
0.556058
 49
-55.049697097832
 53
72.2553283749
 43
1.02
 44
0.7800000000000001
 45
14.00000000000005
 46
44.00000000000001
 79
     2
 49
0.5249759999999999
 49
-51.97264299362679
 53
121.429565615
 43
1.179999999999999
 44
1.28
 45
-16.00000000000004
 46
25.99999999999998
 79
     2
 49
0.4219000000000001
 49
-41.76814621945799
 53
175.236358309
 43
0.9599999999999999
 44
1.639999999999999
 45
21.99999999999997
 46
-2.000000000000075
 79
     2
 49
0.4816640000000001
 49
-23.6015251575846
 53
222.397437798
 43
0.48
 44
1.679999999999999
 45
-23.99999999999993
 46
-21.99999999999994
 79
     2
 49
0.622896
 49
-61.6667500095898
 53
138.814074834
 43
2.0
 44
1.239999999999999
 45
-14.00000000000006
 46
12.0
 79
     2
 49
0.212602
 49
-21.04768962546939
 53
171.46923439
 43
1.84
 44
1.379999999999999
 45
26.0
 46
-3.99999999999999
 79
     2
 49
0.404474
 49
-40.043022832314
 53
225.0
 43
1.439999999999999
 44
1.439999999999999
 45
-0.0000000000000002
 46
-1.999999999999865
 79
     2
 49
0.282842
 49
-2.5455851247462
 53
203.198590514
 43
1.3
 44
1.679999999999999
 45
9.999999999999978
 46
3.99999999999995
 79
     2
 49
0.152316
 49
-15.0792302117278
 53
291.801409486
 43
1.159999999999999
 44
1.62
 45
-1.999999999999367
 46
6.000000000000205
 79
     2
 49
0.215406
 49
-10.554923614269
 53
30.96375653209999
 43
1.239999999999999
 44
1.419999999999999
 45
6.000000000000105
 46
3.999999999999959
 79
     2
 49
0.349858
 49
-11.31204578969059
 53
161.565051177
 43
1.54
 44
1.6
 45
4.000000000000023
 46
-1.999999999999953
 79
     2
 49
0.252982
 49
-6.071573320336798
 53
16.389540334
 43
0.0
 44
1.62
 45
19.99999999999993
 46
6.000000000000087
 79
     2
 49
0.3544
 49
-35.0856902933388
 53
70.3461759419
 43
0.34
 44
1.719999999999999
 45
-8.00000000000244
 46
-22.00000000000679
 79
     2
 49
0.2973219999999999
 49
-29.434815494638
 53
293.198590514
 43
1.54
 44
2.0
 45
-3.999999999999941
 46
9.999999999999982
 79
     2
 49
0.30463
 49
-14.9269162117278
 53
343.610459666
 43
1.659999999999999
 44
1.719999999999999
 45
-19.99999999999993
 46
6.000000000000087
 79
     2
 49
0.3544
 49
-35.08569029333799
 53
339.44395478
 43
0.0
 44
0.38
 45
-10.00000000000007
 46
4.000000000000048
 79
     2
 49
0.3417599999999999
 49
-16.74624749063499
 53
294.775140569
 43
0.32
 44
0.26
 45
-10.00000000000001
 46
22.00000000000001
 79
     2
 49
0.286356
 49
-28.349286126552
 53
66.8014094864
 43
1.56
 44
0.0
 45
3.999999999999962
 46
9.999999999999939
 79
     2
 49
0.30463
 49
-14.9269162117278
 53
17.3540246363
 43
1.679999999999999
 44
0.28
 45
-25.99999999999996
 46
-7.999999999999925
 79
     2
 49
0.335262
 49
-33.19084722848
 53
69.4439547804
 43
0.58
 44
0.0
 45
-4.000000000000014
 46
-9.999999999999909
 79
     2
 49
0.17088
 49
-16.91712749063499
 53
101.309932474
 43
1.439999999999999
 44
0.0
 45
-1.999999999999927
 46
8.000000000000024
 79
     2
 49
0.10198
 49
-10.0960590271856
 53
165.963756532
 43
1.419999999999999
 44
0.1
 45
5.999999999999917
 46
-2.000000000000002
 79
     2
 49
0.41231
 49
-7.8339012512354
 53
186.009005957
 43
1.02
 44
0.2
 45
20.00000000000009
 46
1.999999999999966
 79
     2
 49
0.3821
 49
-37.82784634908561
 53
303.690067526
 43
1.239999999999999
 44
1.239999999999999
 45
-1.999999999999974
 46
3.999999999999971
 79
     2
 49
0.2884439999999999
 49
-6.922658550927999
 53
353.157226587
 43
1.399999999999999
 44
1.0
 45
34.00000000000003
 46
-4.000000000000105
 79
     2
 49
0.5035880000000001
 49
-49.8551252480566
 53
60.9453959009
 43
1.9
 44
0.9399999999999998
 45
-7.999999999999951
 46
-13.99999999999995
 79
     2
 49
0.205912
 49
-20.385348281974
 53
90.0
 43
2.0
 44
1.12
 45
-1.999999999999999
 46
2.0
 79
     2
 49
0.12
 49
-1.879999999999999
 53
120.256437164
 43
0.98
 44
0.26
 45
8.000000000000017
 46
-14.00000000000001
 79
     2
 49
0.277848
 49
-27.50703997889961
 53
48.01278750419999
 43
0.84
 44
0.5
 45
16.0
 46
17.99999999999995
 79
     2
 49
0.538144
 49
-26.3691040941474
 53
0.0
 43
1.199999999999999
 44
0.9
 45
2.0
 46
2.0
 79
     2
 49
0.5200000000000001
 49
-1.479999999999999
 53
325.304846469
 43
1.719999999999999
 44
0.9
 45
20.00000000000028
 46
-13.99999999999965
 79
     2
 49
0.3162279999999999
 49
-31.306548601684
 53
254.0546040990001
 43
1.98
 44
0.72
 45
-2.000000000000075
 46
-8.000000000000008
 79
     2
 49
0.291204
 49
-14.269015778561
 53
207.645975364
 43
1.9
 44
0.4400000000000001
 45
-37.9999999999999
 46
-20.0000000000001
 79
     2
 49
0.47413
 49
-46.93894836451879
 53
175.42607874
 43
1.479999999999999
 44
0.22
 45
-25.99999999999991
 46
2.000000000000002
 79
     2
 49
0.501598
 49
-49.6581468159378
 98
        1
 10
0.0
 20
0.0
1001
GradientColor1ACI
1070
     5
1001
GradientColor2ACI
1070
     2
1001
ACAD
1010
0.0
1020
0.0
1030
0.0
  0
HATCH
  5
AC6C7
330
1F
100
AcDbEntity
  8
HI HATCH FILL
100
AcDbHatch
 10
0.0
 20
0.0
 30
0.0
210
0.0
220
0.0
230
1.0
  2
EARTH
 70
     0
 71
     0
 91
        1
 92
        1
 93
       20
 72
     1
 10
-45.45269253577862
 20
-44.06982790886014
 11
-18.08904142096459
 21
-44.06982790886023
 72
     1
 10
-18.08904142096459
 20
-44.06982790886014
 11
-18.08904142096459
 21
-45.6351508884004
 72
     1
 10
-18.08904142096459
 20
-45.6351508884004
 11
-20.00691970815615
 21
-45.84906246615275
 72
     1
 10
-20.00691970815615
 20
-45.84906246615275
 11
-20.95302894749034
 21
-45.84906246615275
 72
     1
 10
-20.95302894749034
 20
-45.84906246615275
 11
-22.74387831844473
 21
-45.54508286804076
 72
     1
 10
-22.74387831844473
 20
-45.54508286804076
 11
-24.88388746277042
 21
-45.80402857356597
 72
     1
 10
-24.88388746277042
 20
-45.80402857356597
 11
-26.04399717865766
 21
-45.6351508884004
 72
     1
 10
-26.04399717865766
 20
-45.6351508884004
 11
-27.620846073059
 21
-45.6351508884004
 72
     1
 10
-27.620846073059
 20
-45.6351508884004
 11
-29.31981372579014
 21
-45.94221189395887
 72
     1
 10
-29.31981372579014
 20
-45.94221189395887
 11
-31.14022239666855
 21
-45.58277519332103
 72
     1
 10
-31.14022239666855
 20
-45.58277519332103
 11
-33.19661017655437
 21
-45.93097964405524
 72
     1
 10
-33.19661017655437
 20
-45.93097964405524
 11
-34.9833074766413
 21
-45.62770466330772
 72
     1
 10
-34.9833074766413
 20
-45.62770466330772
 11
-36.08454234561055
 21
-45.62770466330772
 72
     1
 10
-36.08454234561055
 20
-45.62770466330772
 11
-37.22292328527149
 21
-45.86953509925904
 72
     1
 10
-37.22292328527149
 20
-45.86953509925904
 11
-38.73649589219201
 21
-45.72879632355688
 72
     1
 10
-38.73649589219201
 20
-45.72879632355688
 11
-40.18608045742991
 21
-45.59400744322466
 72
     1
 10
-40.18608045742991
 20
-45.59400744322466
 11
-41.91659246388621
 21
-45.96467686413825
 72
     1
 10
-41.91659246388621
 20
-45.96467686413825
 11
-43.4111253613351
 21
-45.59400744322466
 72
     1
 10
-43.4111253613351
 20
-45.59400744322466
 11
-45.45269253577862
 21
-45.71465693905958
 72
     1
 10
-45.45269253577862
 20
-45.71465693905958
 11
-45.45269253577862
 21
-44.06982790886014
 97
        0
 75
     1
 76
     1
 52
0.0
 41
3.0
 77
     0
 78
     6
 53
0.0
 43
-45.45269253577862
 44
-45.96467686413825
 45
0.75
 46
0.75
 79
     2
 49
0.75
 49
-0.75
 53
0.0
 43
-45.45269253577862
 44
-45.68342686413825
 45
0.75
 46
0.75
 79
     2
 49
0.75
 49
-0.75
 53
0.0
 43
-45.45269253577862
 44
-45.40217686413825
 45
0.75
 46
0.75
 79
     2
 49
0.75
 49
-0.75
 53
90.0
 43
-45.35894253577862
 44
-45.30842686413826
 45
-0.75
 46
0.75
 79
     2
 49
0.75
 49
-0.75
 53
90.0
 43
-45.07769253577862
 44
-45.30842686413826
 45
-0.75
 46
0.75
 79
     2
 49
0.75
 49
-0.75
 53
90.0
 43
-44.79644253577862
 44
-45.30842686413826
 45
-0.75
 46
0.75
 79
     2
 49
0.75
 49
-0.75
 98
        1
 10
0.0
 20
0.0
1001
GradientColor1ACI
1070
     5
1001
GradientColor2ACI
1070
     2
1001
ACAD
1010
0.0
1020
0.0
1030
0.0
  0
MTEXT
  5
AC6C8
330
1F
100
AcDbEntity
  8
HI Text
100
AcDbMText
 10
-10.8665092352237
 20
-35.44853425118844
 30
0.0
 40
0.5
 41
14.36766712141882
 46
0.0
 71
     4
 72
     1
  1
\A1;{\fArial|b0|i0|c0|p34;PAVER SPECIFIED BY OTHERS}
  7
Hunter
 73
     1
 44
1.0
  0
VIEWPORT
  5
A21C6
102
{ACAD_XDICTIONARY
360
A21C7
102
}
330
A21B8
100
AcDbEntity
 67
     1
  8
0
100
AcDbViewport
 10
5.379608251091793
 20
3.879980799414523
 30
0.0
 40
21.92908682225825
 41
10.60034404030225
 68
     1
 69
     1
 12
5.379608251091793
 22
3.879980799414523
 13
0.0
 23
0.0
 14
0.5
 24
0.5
 15
0.5
 25
0.5
 16
0.0
 26
0.0
 36
1.0
 17
0.0
 27
0.0
 37
0.0
 42
50.0
 43
0.0
 44
0.0
 45
10.60034404030225
 50
0.0
 51
0.0
 72
  1000
 90
   819232
  1

281
     0
 71
     1
 74
     0
110
0.0
120
0.0
130
0.0
111
1.0
121
0.0
131
0.0
112
0.0
122
1.0
132
0.0
 79
     0
146
0.0
170
     0
 61
     5
348
9F
292
     1
282
     1
141
0.0
142
0.0
 63
   250
421
  3355443
  0
VIEWPORT
  5
A21CA
102
{ACAD_XDICTIONARY
360
A21CB
102
}
330
A21B8
100
AcDbEntity
 67
     1
  8
HI No Print
100
AcDbViewport
 10
5.14477344054908
 20
3.904943799045813
 30
0.0
 40
10.25899498546174
 41
7.782805874275823
 68
     2
 69
     2
 12
-25.00154462439566
 22
-39.56007628694357
 13
0.0
 23
0.0
 14
0.5
 24
0.5
 15
0.5
 25
0.5
 16
0.0
 26
0.0
 36
1.0
 17
0.0
 27
0.0
 37
0.0
 42
50.0
 43
0.0
 44
0.0
 45
43.79935209078155
 50
0.0
 51
0.0
 72
  1000
 90
   557664
  1

281
     0
 71
     1
 74
     0
110
0.0
120
0.0
130
0.0
111
1.0
121
0.0
131
0.0
112
0.0
122
1.0
132
0.0
 79
     0
146
0.0
170
     0
 61
     5
348
9F
292
     1
282
     1
141
0.0
142
0.0
 63
   250
421
  3355443
  0
ENDSEC
  0
SECTION
  2
OBJECTS
  0
DICTIONARY
  5
C
330
0
100
AcDbDictionary
281
     1
  3
ACAD_CIP_PREVIOUS_PRODUCT_INFO
350
5C44A
  3
ACAD_COLOR
350
73
  3
ACAD_DETAILVIEWSTYLE
350
5C43F
  3
ACAD_GROUP
350
D
  3
ACAD_IMAGE_DICT
350
620BA
  3
ACAD_IMAGE_VARS
350
9DA
  3
ACAD_LAYOUT
350
1A
  3
ACAD_MATERIAL
350
72
  3
ACAD_MLEADERSTYLE
350
A33
  3
ACAD_MLINESTYLE
350
17
  3
ACAD_PLOTSETTINGS
350
19
  3
ACAD_PLOTSTYLENAME
350
E
  3
ACAD_RENDER_ACTIVE_RAPIDRT_SETTINGS
350
A0A35
  3
ACAD_RENDER_ACTIVE_SETTINGS
350
A15E5
  3
ACAD_SCALELIST
350
A11
  3
ACAD_SECTIONVIEWSTYLE
350
5C43D
  3
ACAD_TABLESTYLE
350
86
  3
ACAD_VISUALSTYLE
350
99
  3
ACAD_WIPEOUT_VARS
350
14083
  3
AcadDim
350
45186
  3
AcadDim_CRX
350
95AB0
  3
AcAec
350
5C6BE
  3
ACDB_RECOMPOSE_DATA
350
AC75D
  3
AcDbVariableDictionary
350
66
  3
AEC_CLASSIFICATION_SYSTEM_DEFS
350
F6
  3
AEC_CLEANUP_GROUP_DEFS
350
5C691
  3
AEC_DISP_REP_CONFIGURATIONS
350
5C68F
  3
AEC_DISP_REP_SETS
350
5C686
  3
AEC_DISP_REPS
350
5C560
  3
AEC_DISPLAY_PROPS_DEFAULTS
350
5C562
  3
AEC_LAYERKEY_STYLES
350
5C693
  3
AEC_PROPERTY_SET_DEFS
350
F7
  3
AEC_VARS
350
5C565
  0
DICTIONARY
  5
B51
330
8
100
AcDbDictionary
280
     1
281
     1
  0
DICTIONARY
  5
E7
330
2
100
AcDbDictionary
280
     1
281
     1
  3
ACAD_LAYERFILTERS
360
1DD06
  3
ACAD_LAYERSTATES
360
E8
  3
ACLYDICTIONARY
360
1DD05
  0
DICTIONARY
  5
A6C
330
10
100
AcDbDictionary
280
     1
281
     1
  3
ADSK_XREC_LAYER_RECONCILED
360
A6D
  0
DICTIONARY
  5
9EC2C
330
9EC2B
100
AcDbDictionary
280
     1
281
     1
  0
DICTIONARY
  5
AC3F8
330
AC3F7
100
AcDbDictionary
280
     1
281
     1
  0
DICTIONARY
  5
A62
330
1F
100
AcDbDictionary
280
     1
281
     1
  3
ACAD_SORTENTS
360
A63
  0
DICTIONARY
  5
A21AF
330
A21AE
100
AcDbDictionary
280
     1
281
     1
  3
ASDK_XREC_ANNOTATION_SCALE_INFO
360
A21B0
  0
DICTIONARY
  5
A21B3
330
A21B2
100
AcDbDictionary
280
     1
281
     1
  3
ASDK_XREC_ANNOTATION_SCALE_INFO
360
A21B4
  0
DICTIONARY
  5
AC55C
330
AC55B
100
AcDbDictionary
280
     1
281
     1
  3
ACAD_MTEXT_2008_RT
360
AC75B
  0
DICTIONARY
  5
AC560
330
AC55F
100
AcDbDictionary
280
     1
281
     1
  0
DICTIONARY
  5
AC630
330
AC62F
100
AcDbDictionary
280
     1
281
     1
  0
DICTIONARY
  5
AC643
330
AC642
100
AcDbDictionary
280
     1
281
     1
  0
DICTIONARY
  5
AC648
330
AC647
100
AcDbDictionary
280
     1
281
     1
  3
ACAD_MTEXT_2008_RT
360
AC75C
  0
DICTIONARY
  5
A21C7
330
A21C6
100
AcDbDictionary
280
     1
281
     1
  3
ASDK_XREC_ANNOTATION_SCALE_INFO
360
A21C8
  0
DICTIONARY
  5
A21CB
330
A21CA
100
AcDbDictionary
280
     1
281
     1
  3
ASDK_XREC_ANNOTATION_SCALE_INFO
360
A21CC
  0
XRECORD
  5
5C44A
102
{ACAD_REACTORS
330
C
102
}
330
C
100
AcDbXrecord
280
     1
300
ACD
300
2015
300
ACD_F_S
  0
DICTIONARY
  5
73
102
{ACAD_REACTORS
330
C
102
}
330
C
100
AcDbDictionary
281
     1
  0
DICTIONARY
  5
5C43F
102
{ACAD_REACTORS
330
C
102
}
330
C
100
AcDbDictionary
281
     1
  3
Imperial24
350
5C440
  0
DICTIONARY
  5
D
102
{ACAD_REACTORS
330
C
102
}
330
C
100
AcDbDictionary
281
     1
  3
*A4
350
AC679
  3
*A5
350
AC67A
  3
*A6
350
AC67B
  0
DICTIONARY
  5
620BA
102
{ACAD_REACTORS
330
C
102
}
330
C
100
AcDbDictionary
281
     1
  0
RASTERVARIABLES
  5
9DA
102
{ACAD_REACTORS
330
C
102
}
330
C
100
AcDbRasterVariables
 90
        0
 70
     1
 71
     1
 72
     5
  0
DICTIONARY
  5
1A
102
{ACAD_REACTORS
330
C
102
}
330
C
100
AcDbDictionary
281
     1
  3
8.5 X 11
350
A21A1
  3
A4
350
A21B9
  3
Model
350
22
  0
DICTIONARY
  5
72
102
{ACAD_REACTORS
330
C
102
}
330
C
100
AcDbDictionary
281
     1
  3
ByBlock
350
97
  3
ByLayer
350
96
  3
Global
350
98
  0
DICTIONARY
  5
A33
102
{ACAD_REACTORS
330
C
102
}
330
C
100
AcDbDictionary
281
     1
  3
Standard
350
A34
  0
DICTIONARY
  5
17
102
{ACAD_REACTORS
330
C
102
}
330
C
100
AcDbDictionary
281
     1
  3
Standard
350
18
  0
DICTIONARY
  5
19
102
{ACAD_REACTORS
330
C
102
}
330
C
100
AcDbDictionary
281
     1
  3
500 - 24x36
350
E0
  3
500 - 30x42 Landscape
350
DE
  3
500 - 30x42 Portrait
350
DF
  3
6200 8.5x11
350
1052
  3
9800 - 11x17 Reduced
350
E1
  3
K550 - 8x11 Reduced
350
E2
  0
ACDBDICTIONARYWDFLT
  5
E
102
{ACAD_REACTORS
330
C
102
}
330
C
100
AcDbDictionary
281
     1
  3
Normal
350
F
100
AcDbDictionaryWithDefault
340
F
  0
ACAD_PROXY_OBJECT
  5
A0A35
102
{ACAD_REACTORS
330
C
102
}
330
C
100
AcDbProxyObject
 90
      499
 91
      769
 95
  3276827
 70
     0
162
               534
311
419340194019001A401D401B4024690401C001C001B001A4019401CC008000D4008001C8019401B80190019401C801A401B8019C008001B0019401D8019401B001CC00
161
               201
310
40AE40E4150140502000000000000021000000000000000840CC
 94
        0
  0
MENTALRAYRENDERSETTINGS
  5
A15E5
102
{ACAD_XDICTIONARY
360
A15E6
102
}
102
{ACAD_REACTORS
330
C
102
}
330
C
100
AcDbRenderSettings
 90
        2
  1
Medium
290
     1
290
     1
290
     1
290
     1
  1

  1

 90
        0
100
AcDbMentalRayRenderSettings
 90
        2
 90
        0
 90
        1
 70
     2
 40
3.0
 40
3.0
 40
0.0500000007450581
 40
0.0500000007450581
 40
0.0500000007450581
 40
0.0500000007450581
 70
     0
290
     0
290
     1
 90
        5
 90
        5
 90
        5
290
     0
 90
      500
290
     0
 40
1.0
 90
    10000
 90
        5
 90
        5
 90
        5
290
     0
 90
      200
290
     0
290
     0
290
     0
 40
1.0
 40
1.0
 40
1500.0
 70
     0
 70
     0
 40
10.0
 70
     0
 70
     0
290
     0
  1

 90
       32
 70
     0
 90
     1048
290
     0
 40
1.0
  0
DICTIONARY
  5
A11
102
{ACAD_REACTORS
330
C
102
}
330
C
100
AcDbDictionary
281
     1
  3
*A1
350
4D48B
  3
*A2
350
4D48C
  3
*A3
350
5C55A
  3
*A4
350
5C55B
  3
A0
350
A12
  3
A1
350
1DC91
  3
A2
350
1DC92
  3
A3
350
1DC93
  3
A4
350
1DC94
  3
A5
350
1DC95
  3
A6
350
1DC96
  3
A7
350
1DC97
  3
A8
350
1DC98
  3
A9
350
1DC99
  3
B0
350
1DC9A
  3
B1
350
1DC9B
  3
B2
350
1DC9C
  3
B3
350
1DC9D
  3
B4
350
1DC9E
  3
B5
350
1DC9F
  3
B6
350
1DCA0
  3
B7
350
1DCA1
  3
B8
350
1DCA2
  3
B9
350
1DCA3
  3
C0
350
1DCA4
  3
C1
350
1DCA5
  3
C2
350
1DCA6
  3
C3
350
1DCA7
  3
C4
350
1DCA8
  3
C5
350
1DCA9
  3
C6
350
1DCAA
  3
C7
350
1DCAB
  3
C8
350
1DCAC
  3
C9
350
1DCAD
  3
D0
350
1DCAE
  3
D1
350
1DCAF
  3
D2
350
1DCB0
  0
DICTIONARY
  5
5C43D
102
{ACAD_REACTORS
330
C
102
}
330
C
100
AcDbDictionary
281
     1
  3
Imperial24
350
5C43E
  0
DICTIONARY
  5
86
102
{ACAD_REACTORS
330
C
102
}
330
C
100
AcDbDictionary
281
     1
  3
Standard
350
87
  0
DICTIONARY
  5
99
102
{ACAD_REACTORS
330
C
102
}
330
C
100
AcDbDictionary
281
     1
  3
2dWireframe
350
9F
  3
3D Hidden
350
A1
  3
3dWireframe
350
A0
  3
Basic
350
9E
  3
Brighten
350
A5
  3
ColorChange
350
A9
  3
Conceptual
350
A2
  3
Dim
350
A4
  3
EdgeColorOff
350
5C43C
  3
Facepattern
350
A8
  3
Flat
350
9A
  3
FlatWithEdges
350
9B
  3
Gouraud
350
9C
  3
GouraudWithEdges
350
9D
  3
Hidden
350
5C434
  3
JitterOff
350
5C43A
  3
Linepattern
350
A7
  3
OverhangOff
350
5C43B
  3
Realistic
350
A3
  3
Shaded
350
5C439
  3
Shaded with edges
350
5C438
  3
Shades of Gray
350
5C435
  3
Sketchy
350
5C436
  3
Thicken
350
A6
  3
Wireframe
350
5C433
  3
X-Ray
350
5C437
  0
WIPEOUTVARIABLES
  5
14083
102
{ACAD_REACTORS
330
C
102
}
330
C
100
AcDbWipeoutVariables
 70
     1
  0
XRECORD
  5
45186
102
{ACAD_REACTORS
330
C
102
}
330
C
100
AcDbXrecord
280
     1
 90
   990106
  3

 60
     0
 61
     0
 62
     1
 63
     3
 64
     0
 65
     0
 66
     0
 67
     3
 68
     1
 69
     0
 70
     0
 71
     0
 72
     0
 40
0.0
170
     0
  0
XRECORD
  5
95AB0
102
{ACAD_REACTORS
330
C
102
}
330
C
100
AcDbXrecord
280
     1
 90
   990106
  3

 60
     0
 61
     0
 62
     1
 63
     3
 64
     0
 65
     0
 66
     0
 67
     3
 68
     1
 69
     0
 70
     0
 71
     0
 72
     0
 40
0.0
170
     0
  0
DICTIONARY
  5
5C6BE
102
{ACAD_REACTORS
330
C
102
}
330
C
100
AcDbDictionary
281
     1
  3
AcAecLayerManager
350
5C6BF
  0
XRECORD
  5
AC75D
102
{ACAD_REACTORS
330
C
102
}
330
C
100
AcDbXrecord
280
     1
 90
        1
330
87
330
5C43E
330
5C440
330
AC55B
330
AC62F
330
AC642
330
AC647
  0
DICTIONARY
  5
66
102
{ACAD_REACTORS
330
C
102
}
330
C
100
AcDbDictionary
281
     1
  3
CANNOSCALE
350
B5D
  3
CMLEADERSTYLE
350
B5C
  3
CTABLESTYLE
350
89
  3
CVIEWDETAILSTYLE
350
66F55
  3
CVIEWSECTIONSTYLE
350
66F56
  3
DIMASSOC
350
67
  3
HIDETEXT
350
6B
  3
HPCOLOR
350
9D9A7
  3
HPTRANSPARENCY
350
9D9A6
  3
LAYEREVAL
350
25751
  3
LAYERNOTIFY
350
25752
  3
LIGHTINGUNITS
350
F79
  3
MSLTSCALE
350
F78
  0
DICTIONARY
  5
F6
102
{ACAD_REACTORS
330
C
102
}
330
C
100
AcDbDictionary
281
     1
  0
DICTIONARY
  5
5C691
102
{ACAD_REACTORS
330
C
102
}
330
C
100
AcDbDictionary
281
     1
  3
Standard
350
5C692
  0
DICTIONARY
  5
5C68F
102
{ACAD_REACTORS
330
C
102
}
330
C
100
AcDbDictionary
281
     1
  3
Medium Detail
350
5C6A8
  3
Standard
350
5C690
  0
DICTIONARY
  5
5C686
102
{ACAD_REACTORS
330
C
102
}
330
C
100
AcDbDictionary
281
     1
  3
Elevation
350
5C68A
  3
Model
350
5C687
  3
Model High Detail
350
5C68E
  3
Model Low Detail
350
5C68D
  3
Plan
350
5C688
  3
Plan Diagnostic
350
5C6AB
  3
Plan High Detail
350
5C68C
  3
Plan Low Detail
350
5C68B
  3
Reflected
350
5C689
  3
Section_Elev
350
5C6AE
  0
DICTIONARY
  5
5C560
102
{ACAD_REACTORS
330
C
102
}
330
C
100
AcDbDictionary
281
     1
  3
AecDbDispRep2dSection
350
5C564
  3
AecDbDispRepAnchor
350
5C568
  3
AecDbDispRepAnchorBubToGrid
350
5C604
  3
AecDbDispRepAnchorBubToGridMdl
350
5C621
  3
AecDbDispRepAnchorBubToGridRcp
350
5C608
  3
AecDbDispRepAnchorEntToNode
350
5C569
  3
AecDbDispRepAnchorExtendedTagToEnt
350
5C56B
  3
AecDbDispRepAnchorTagToEnt
350
5C561
  3
AecDbDispRepBdgElevLineModel
350
5C61D
  3
AecDbDispRepBdgElevLinePlan
350
5C5B4
  3
AecDbDispRepBdgElevLinePlan100
350
5C5B8
  3
AecDbDispRepBdgElevLinePlan50
350
5C5F6
  3
AecDbDispRepBdgElevLineRcp
350
5C60E
  3
AecDbDispRepBdgSectionLineModel
350
5C615
  3
AecDbDispRepBdgSectionLinePlan
350
5C5C6
  3
AecDbDispRepBdgSectionLinePlan100
350
5C5BA
  3
AecDbDispRepBdgSectionLinePlan50
350
5C5E9
  3
AecDbDispRepBdgSectionLineRcp
350
5C61B
  3
AecDbDispRepBdgSectionModel
350
5C610
  3
AecDbDispRepBdgSectionSubDiv
350
5C611
  3
AecDbDispRepCeilingGrid
350
5C5BE
  3
AecDbDispRepCeilingGridModel
350
5C613
  3
AecDbDispRepCeilingGridPlan100
350
5C5B6
  3
AecDbDispRepCeilingGridPlan50
350
5C5F0
  3
AecDbDispRepCeilingGridRcp
350
5C606
  3
AecDbDispRepClipVolModel
350
5C56D
  3
AecDbDispRepClipVolPlan
350
5C573
  3
AecDbDispRepClipVolResSubDiv
350
5C579
  3
AecDbDispRepClipVolResult
350
5C580
  3
AecDbDispRepColumnGrid
350
5C5C8
  3
AecDbDispRepColumnGridModel
350
5C617
  3
AecDbDispRepColumnGridPlan100
350
5C5C0
  3
AecDbDispRepColumnGridPlan50
350
5C5E7
  3
AecDbDispRepColumnGridRcp
350
5C619
  3
AecDbDispRepCurtainWallLayoutModel
350
5C61F
  3
AecDbDispRepCurtainWallLayoutPlan
350
5C5BC
  3
AecDbDispRepCurtainWallLayoutPlan100
350
5C5CA
  3
AecDbDispRepCurtainWallLayoutPlan50
350
5C5F8
  3
AecDbDispRepCurtainWallUnitModel
350
5C60A
  3
AecDbDispRepCurtainWallUnitPlan
350
5C5C2
  3
AecDbDispRepCurtainWallUnitPlan100
350
5C5C4
  3
AecDbDispRepCurtainWallUnitPlan50
350
5C5E5
  3
AecDbDispRepDimGroupPlan
350
5C645
  3
AecDbDispRepDimGroupPlan100
350
5C60C
  3
AecDbDispRepDimGroupPlan50
350
5C62B
  3
AecDbDispRepDisplayTheme
350
5C588
  3
AecDbDispRepDoorElev
350
5C635
  3
AecDbDispRepDoorModel
350
5C62D
  3
AecDbDispRepDoorNominal
350
5C639
  3
AecDbDispRepDoorPlan
350
5C63F
  3
AecDbDispRepDoorPlan50
350
5C62F
  3
AecDbDispRepDoorPlanHekto
350
5C625
  3
AecDbDispRepDoorRcp
350
5C641
  3
AecDbDispRepDoorThresholdPlan
350
5C631
  3
AecDbDispRepDoorThresholdSymbolPlan
350
5C623
  3
AecDbDispRepEditInPlaceProfile
350
5C571
  3
AecDbDispRepEntRef
350
5C575
  3
AecDbDispRepLayoutCurve
350
5C577
  3
AecDbDispRepLayoutGrid2d
350
5C56F
  3
AecDbDispRepLayoutGrid3d
350
5C57B
  3
AecDbDispRepMaskBlockRef
350
5C57E
  3
AecDbDispRepMaskBlockRefRcp
350
5C633
  3
AecDbDispRepMassElemModel
350
5C592
  3
AecDbDispRepMassElemPlan100
350
5C63B
  3
AecDbDispRepMassElemPlan50
350
5C637
  3
AecDbDispRepMassElemRcp
350
5C63D
  3
AecDbDispRepMassElemSchem
350
5C58C
  3
AecDbDispRepMassGroupModel
350
5C590
  3
AecDbDispRepMassGroupPlan
350
5C58E
  3
AecDbDispRepMassGroupPlan100
350
5C643
  3
AecDbDispRepMassGroupPlan50
350
5C627
  3
AecDbDispRepMassGroupRcp
350
5C629
  3
AecDbDispRepMaterial
350
5C586
  3
AecDbDispRepMaterial$General Medium Detail
350
5C6B1
  3
AecDbDispRepMvBlockRef
350
5C581
  3
AecDbDispRepMvBlockRef$Plan
350
5C6B4
  3
AecDbDispRepMvBlockRefModel
350
5C57D
  3
AecDbDispRepMvBlockRefPlan100
350
5C5CC
  3
AecDbDispRepMvBlockRefPlan50
350
5C5EB
  3
AecDbDispRepMvBlockRefRcp
350
5C64F
  3
AecDbDispRepOpening
350
5C64D
  3
AecDbDispRepOpeningModel
350
5C647
  3
AecDbDispRepOpeningPlan100
350
5C650
  3
AecDbDispRepOpeningPlan50
350
5C649
  3
AecDbDispRepOpeningPlanReflected
350
5C64B
  3
AecDbDispRepOpeningSillPlan
350
5C652
  3
AecDbDispRepPolygonModel
350
5C582
  3
AecDbDispRepPolygonTrueColour
350
5C584
  3
AecDbDispRepRailingModel
350
5C65E
  3
AecDbDispRepRailingPlan
350
5C654
  3
AecDbDispRepRailingPlan100
350
5C65A
  3
AecDbDispRepRailingPlan50
350
5C65C
  3
AecDbDispRepRoofModel
350
5C656
  3
AecDbDispRepRoofPlan
350
5C5CF
  3
AecDbDispRepRoofPlan100
350
5C5DF
  3
AecDbDispRepRoofPlan50
350
5C5F2
  3
AecDbDispRepRoofRcp
350
5C658
  3
AecDbDispRepRoofSlabModel
350
5C668
  3
AecDbDispRepRoofSlabPlan
350
5C5CD
  3
AecDbDispRepRoofSlabPlan100
350
5C5D5
  3
AecDbDispRepRoofSlabPlan50
350
5C5FA
  3
AecDbDispRepScheduleTable
350
5C684
  3
AecDbDispRepSlabModel
350
5C672
  3
AecDbDispRepSlabPlan
350
5C5DB
  3
AecDbDispRepSlabPlan100
350
5C5D1
  3
AecDbDispRepSlabPlan50
350
5C5F4
  3
AecDbDispRepSlice
350
5C58A
  3
AecDbDispRepSpaceDecomposed
350
5C666
  3
AecDbDispRepSpaceModel
350
5C66C
  3
AecDbDispRepSpacePlan
350
5C5D3
  3
AecDbDispRepSpacePlan100
350
5C5D7
  3
AecDbDispRepSpacePlan50
350
5C5FE
  3
AecDbDispRepSpaceRcp
350
5C664
  3
AecDbDispRepSpaceVolume
350
5C66E
  3
AecDbDispRepStairModel
350
5C660
  3
AecDbDispRepStairPlan
350
5C662
  3
AecDbDispRepStairPlan100
350
5C66A
  3
AecDbDispRepStairPlan50
350
5C670
  3
AecDbDispRepStairPlanOverlapping
350
5C5A6
  3
AecDbDispRepStairRcp
350
5C5A4
  3
AecDbDispRepWallGraph
350
5C5AA
  3
AecDbDispRepWallModel
350
5C596
  3
AecDbDispRepWallPlan
350
5C5DD
  3
AecDbDispRepWallPlan100
350
5C5D9
  3
AecDbDispRepWallPlan50
350
5C5FC
  3
AecDbDispRepWallRcp
350
5C59A
  3
AecDbDispRepWallSchem
350
5C5AC
  3
AecDbDispRepWindowAssemblyModel
350
5C5AE
  3
AecDbDispRepWindowAssemblyPlan
350
5C5EC
  3
AecDbDispRepWindowAssemblyPlan100
350
5C5EE
  3
AecDbDispRepWindowAssemblyPlan50
350
5C602
  3
AecDbDispRepWindowAssemblySillPlan
350
5C5A8
  3
AecDbDispRepWindowElev
350
5C594
  3
AecDbDispRepWindowModel
350
5C5A2
  3
AecDbDispRepWindowNominal
350
5C5B2
  3
AecDbDispRepWindowPlan
350
5C59C
  3
AecDbDispRepWindowPlan100
350
5C59E
  3
AecDbDispRepWindowPlan50
350
5C598
  3
AecDbDispRepWindowRcp
350
5C5B0
  3
AecDbDispRepWindowSillPlan
350
5C5A0
  3
AecDbDispRepZone
350
5C5E3
  3
AecDbDispRepZonePlan100
350
5C5E1
  3
AecDbDispRepZonePlan50
350
5C600
  3
AecsDbDispRepMemberElevationDesign
350
5C67C
  3
AecsDbDispRepMemberElevationDetail
350
5C678
  3
AecsDbDispRepMemberLogical
350
5C676
  3
AecsDbDispRepMemberModelDesign
350
5C67A
  3
AecsDbDispRepMemberModelDetail
350
5C674
  3
AecsDbDispRepMemberPlanDesign
350
5C67E
  3
AecsDbDispRepMemberPlanDetail
350
5C680
  3
AecsDbDispRepMemberPlanSketch
350
5C682
  0
DICTIONARY
  5
5C562
102
{ACAD_REACTORS
330
C
102
}
330
C
100
AcDbDictionary
281
     1
  3
*A1
350
5C563
  3
*A10
350
5C5D0
  3
*A100
350
5C57C
  3
*A101
350
5C65B
  3
*A102
350
5C65D
  3
*A103
350
5C640
  3
*A104
350
5C5C7
  3
*A105
350
5C663
  3
*A106
350
5C632
  3
*A107
350
5C589
  3
*A108
350
5C671
  3
*A109
350
5C669
  3
*A11
350
5C5B1
  3
*A110
350
5C66B
  3
*A111
350
5C64A
  3
*A112
350
5C59F
  3
*A113
350
5C5D4
  3
*A114
350
5C66F
  3
*A115
350
5C655
  3
*A116
350
5C673
  3
*A117
350
5C612
  3
*A118
350
5C634
  3
*A119
350
5C5E6
  3
*A12
350
5C5A7
  3
*A120
350
5C679
  3
*A121
350
5C5EA
  3
*A122
350
5C665
  3
*A123
350
5C5DE
  3
*A124
350
5C67F
  3
*A125
350
5C5AD
  3
*A126
350
5C585
  3
*A127
350
5C683
  3
*A128
350
5C66D
  3
*A129
350
5C5BD
  3
*A13
350
5C5FD
  3
*A130
350
5C636
  3
*A131
350
5C675
  3
*A132
350
5C5ED
  3
*A133
350
5C646
  3
*A134
350
5C609
  3
*A135
350
5C58B
  3
*A136
350
5C681
  3
*A137
350
5C605
  3
*A138
350
5C58F
  3
*A139
350
5C642
  3
*A14
350
5C5A9
  3
*A140
350
5C593
  3
*A141
350
5C6B7
  3
*A142
350
5C5D6
  3
*A15
350
5C587
  3
*A16
350
5C5E8
  3
*A17
350
5C624
  3
*A18
350
5C5AF
  3
*A19
350
5C591
  3
*A2
350
5C620
  3
*A20
350
5C5B3
  3
*A21
350
5C667
  3
*A22
350
5C56C
  3
*A23
350
5C638
  3
*A24
350
5C5F3
  3
*A25
350
5C5B9
  3
*A26
350
5C63C
  3
*A27
350
5C5A3
  3
*A28
350
5C62E
  3
*A29
350
5C5BF
  3
*A3
350
5C597
  3
*A30
350
5C5F9
  3
*A31
350
5C5CB
  3
*A32
350
5C5C5
  3
*A33
350
5C5AB
  3
*A34
350
5C60B
  3
*A35
350
5C651
  3
*A36
350
5C56E
  3
*A37
350
5C5B5
  3
*A38
350
5C63E
  3
*A39
350
5C583
  3
*A4
350
5C599
  3
*A40
350
5C65F
  3
*A41
350
5C5D2
  3
*A42
350
5C5C1
  3
*A43
350
5C659
  3
*A44
350
5C5D8
  3
*A45
350
5C57A
  3
*A46
350
5C5F5
  3
*A47
350
5C5DC
  3
*A48
350
5C5C9
  3
*A49
350
5C626
  3
*A5
350
5C59B
  3
*A50
350
5C5CE
  3
*A51
350
5C63A
  3
*A52
350
5C67B
  3
*A53
350
5C5FB
  3
*A54
350
5C5DA
  3
*A55
350
5C677
  3
*A56
350
5C5FF
  3
*A57
350
5C5A5
  3
*A58
350
5C603
  3
*A59
350
5C570
  3
*A6
350
5C578
  3
*A60
350
5C644
  3
*A61
350
5C607
  3
*A62
350
5C574
  3
*A63
350
5C5EF
  3
*A64
350
5C685
  3
*A65
350
5C60D
  3
*A66
350
5C5E0
  3
*A67
350
5C64C
  3
*A68
350
5C61C
  3
*A69
350
5C614
  3
*A7
350
5C616
  3
*A70
350
5C5F7
  3
*A71
350
5C661
  3
*A72
350
5C58D
  3
*A73
350
5C61A
  3
*A74
350
5C601
  3
*A75
350
5C576
  3
*A76
350
5C5C3
  3
*A77
350
5C5E2
  3
*A78
350
5C59D
  3
*A79
350
5C622
  3
*A8
350
5C5A1
  3
*A80
350
5C60F
  3
*A81
350
5C595
  3
*A82
350
5C628
  3
*A83
350
5C57F
  3
*A84
350
5C648
  3
*A85
350
5C62C
  3
*A86
350
5C618
  3
*A87
350
5C67D
  3
*A88
350
5C5E4
  3
*A89
350
5C61E
  3
*A9
350
5C56A
  3
*A90
350
5C572
  3
*A91
350
5C5BB
  3
*A92
350
5C64E
  3
*A93
350
5C62A
  3
*A94
350
5C5B7
  3
*A95
350
5C653
  3
*A96
350
5C5F1
  3
*A97
350
5C657
  3
*A98
350
5C630
  3
*A99
350
5C567
  0
DICTIONARY
  5
5C693
102
{ACAD_REACTORS
330
C
102
}
330
C
100
AcDbDictionary
281
     1
  3
AIA (256 Color)
350
5C6B8
  0
DICTIONARY
  5
F7
102
{ACAD_REACTORS
330
C
102
}
330
C
100
AcDbDictionary
281
     1
  0
DICTIONARY
  5
5C565
102
{ACAD_REACTORS
330
C
102
}
330
C
100
AcDbDictionary
281
     1
  3
AEC_VARS_ARCHBASE
350
5C6BB
  3
AEC_VARS_DWG_SETUP
350
5C566
  3
AEC_VARS_STRUCTUREBASE
350
5C6BC
  3
AECMX_VARS_MUNICH
350
5C6BD
  0
DICTIONARY
  5
1DD06
102
{ACAD_REACTORS
330
E7
102
}
330
E7
100
AcDbDictionary
281
     1
  0
DICTIONARY
  5
E8
102
{ACAD_REACTORS
330
E7
102
}
330
E7
100
AcDbDictionary
281
     1
  0
DICTIONARY
  5
1DD05
102
{ACAD_REACTORS
330
E7
102
}
330
E7
100
AcDbDictionary
281
     1
1001
ACAD
1000
<All
  0
XRECORD
  5
A6D
102
{ACAD_REACTORS
330
A6C
102
}
330
A6C
100
AcDbXrecord
280
     1
290
     1
  0
SORTENTSTABLE
  5
A63
102
{ACAD_REACTORS
330
A62
102
}
330
A62
100
AcDbSortentsTable
330
1F
331
AC62C
  5
AC632
331
AC628
  5
AC62D
331
AC668
  5
AC67F
331
AC6B7
  5
AC6C1
331
AC664
  5
AC678
331
AC6B3
  5
AC66B
331
AC660
  5
AC675
331
AC624
  5
AC628
331
AC5C9
  5
AC5CB
331
AC620
  5
AC624
331
AC5C5
  5
AC5C7
331
AC61C
  5
AC620
331
AC57E
  5
AC584
331
AC5C1
  5
AC5C3
331
AC618
  5
AC61C
331
AC65C
  5
AC66A
331
AC658
  5
AC666
331
AC6A7
  5
AC611
331
AC654
  5
AC662
331
AC6A3
  5
AC6BA
331
AC650
  5
AC65C
331
AC614
  5
AC618
331
AC5BD
  5
AC5BF
331
AC610
  5
AC614
331
AC60C
  5
AC60E
331
AC55E
  5
AC57C
331
AC5A5
  5
AC5BE
331
AC608
  5
AC60A
331
AC55A
  5
AC55D
331
AC5A1
  5
AC5A3
331
AC69F
  5
AC6B6
331
AC64C
  5
AC658
331
AC640
  5
AC653
331
AC604
  5
AC606
331
AC556
  5
AC558
331
AC552
  5
AC554
331
AC54E
  5
AC550
331
AC5F0
  5
AC602
331
AC591
  5
AC5A0
331
AC67F
  5
AC6B5
331
AC63C
  5
AC64E
331
AC677
  5
AC6A6
331
AC638
  5
AC641
331
AC6BE
  5
AC64A
331
AC634
  5
AC63A
331
AC673
  5
AC6A2
331
AC62F
  5
AC635
331
AC62B
  5
AC631
331
AC667
  5
AC67E
331
AC6B6
  5
AC6C0
331
AC663
  5
AC677
331
AC627
  5
AC62C
331
AC623
  5
AC627
331
AC5CC
  5
AC5D3
331
AC61F
  5
AC623
331
AC5C8
  5
AC5CA
331
AC61B
  5
AC61F
331
AC57D
  5
AC583
331
AC5C4
  5
AC5C6
331
AC5C0
  5
AC5C2
331
AC65F
  5
AC674
331
AC65B
  5
AC669
331
AC657
  5
AC665
331
AC6A6
  5
AC6BD
331
AC653
  5
AC660
331
AC6A2
  5
AC6B9
331
AC617
  5
AC61B
331
AC613
  5
AC617
331
AC60F
  5
AC613
331
AC55D
  5
AC55F
331
AC5A4
  5
AC5BD
331
AC60B
  5
AC60D
331
AC559
  5
AC55B
331
AC5A0
  5
AC5A2
331
AC64F
  5
AC65B
331
AC64B
  5
AC657
331
AC647
  5
AC656
331
AC607
  5
AC609
331
AC555
  5
AC557
331
AC603
  5
AC605
331
AC551
  5
AC553
331
AC54D
  5
AC54F
331
AC549
  5
AC549
331
AC590
  5
AC59F
331
AC63F
  5
AC652
331
AC67E
  5
AC6B4
331
AC63B
  5
AC64D
331
AC6C1
  5
AC6C7
331
AC637
  5
AC63F
331
AC676
  5
AC6A5
331
AC6BD
  5
AC645
331
AC633
  5
AC638
331
AC672
  5
AC6A1
331
AC6B9
  5
AC6C4
331
AC5EF
  5
AC5F1
331
AC62E
  5
AC634
331
AC5D3
  5
AC5F0
331
AC62A
  5
AC62F
331
AC66A
  5
AC682
331
AC666
  5
AC67D
331
AC6B5
  5
AC6BF
331
AC662
  5
AC676
331
AC626
  5
AC62B
331
AC584
  5
AC590
331
AC5CB
  5
AC5CE
331
AC622
  5
AC626
331
AC5C7
  5
AC5C9
331
AC61E
  5
AC622
331
AC57C
  5
AC57E
331
AC5C3
  5
AC5C5
331
AC61A
  5
AC61E
331
AC65E
  5
AC66C
331
AC65A
  5
AC668
331
AC656
  5
AC664
331
AC6A5
  5
AC6BC
331
AC652
  5
AC65E
331
AC6A1
  5
AC6B8
331
AC5BF
  5
AC5C1
331
AC616
  5
AC61A
331
AC612
  5
AC616
331
AC60E
  5
AC610
331
AC5A3
  5
AC5A5
331
AC60A
  5
AC60C
331
AC558
  5
AC55A
331
AC64E
  5
AC65A
331
AC6C8
  5
AC6C8
331
AC642
  5
AC655
331
AC59F
  5
AC5A1
331
AC606
  5
AC608
331
AC602
  5
AC604
331
AC554
  5
AC556
331
AC550
  5
AC552
331
AC54C
  5
AC54E
331
AC6C4
  5
AC54C
331
AC63E
  5
AC651
331
AC67D
  5
AC6B3
331
AC63A
  5
AC644
331
AC6C0
  5
AC640
331
AC636
  5
AC63E
331
AC675
  5
AC6A4
331
AC6BC
  5
AC63C
331
AC632
  5
AC637
331
AC6B8
  5
AC6C3
331
AC62D
  5
AC633
331
AC58F
  5
AC591
331
AC629
  5
AC62E
331
AC669
  5
AC681
331
AC665
  5
AC67C
331
AC6B4
  5
AC6BE
331
AC5CE
  5
AC5EF
331
AC625
  5
AC62A
331
AC5CA
  5
AC5CC
331
AC621
  5
AC625
331
AC583
  5
AC58F
331
AC5C6
  5
AC5C8
331
AC61D
  5
AC621
331
AC5C2
  5
AC5C4
331
AC619
  5
AC61D
331
AC659
  5
AC667
331
AC6A8
  5
AC612
331
AC655
  5
AC663
331
AC6A4
  5
AC6BB
331
AC651
  5
AC65D
331
AC6A0
  5
AC6B7
331
AC615
  5
AC619
331
AC5BE
  5
AC5C0
331
AC611
  5
AC615
331
AC60D
  5
AC60F
331
AC55F
  5
AC57D
331
AC609
  5
AC60B
331
AC55B
  5
AC55E
331
AC5A2
  5
AC5A4
331
AC64D
  5
AC659
331
AC641
  5
AC654
331
AC605
  5
AC607
331
AC557
  5
AC559
331
AC553
  5
AC555
331
AC54F
  5
AC551
331
AC5F1
  5
AC603
331
AC54B
  5
AC54B
331
AC6C7
  5
AC54D
331
AC63D
  5
AC64F
331
AC67C
  5
AC6A8
331
AC639
  5
AC642
331
AC678
  5
AC6A7
331
AC6BF
  5
AC650
331
AC635
  5
AC63D
331
AC6BB
  5
AC63B
331
AC631
  5
AC636
  0
XRECORD
  5
A21B0
102
{ACAD_REACTORS
330
A21AF
102
}
330
A21AF
100
AcDbXrecord
280
     1
 90
        1
340
1DCB0
  0
XRECORD
  5
A21B4
102
{ACAD_REACTORS
330
A21B3
102
}
330
A21B3
100
AcDbXrecord
280
     1
 90
        1
340
A12
  0
XRECORD
  5
AC75B
102
{ACAD_REACTORS
330
AC55C
102
}
330
AC55C
100
AcDbXrecord
280
     1
 40
98084.0
  1
\pxql;{\fArial|b0|i0|c0|p34;ECO-MAT - UNDER GRASS PAVERS}
  0
XRECORD
  5
AC75C
102
{ACAD_REACTORS
330
AC648
102
}
330
AC648
100
AcDbXrecord
280
     1
 40
70711.0
  1
\pxi-3,l4,t4;APPROX.^I6"\P\pi0,l0,tz;(15.2 CM)
  0
XRECORD
  5
A21C8
102
{ACAD_REACTORS
330
A21C7
102
}
330
A21C7
100
AcDbXrecord
280
     1
 90
        1
340
1DCB0
  0
XRECORD
  5
A21CC
102
{ACAD_REACTORS
330
A21CB
102
}
330
A21CB
100
AcDbXrecord
280
     1
 90
        1
340
A12
  0
ACDBDETAILVIEWSTYLE
  5
5C440
102
{ACAD_XDICTIONARY
360
A21DF
102
}
102
{ACAD_REACTORS
330
5C43F
102
}
330
5C43F
100
AcDbModelDocViewStyle
 70
     0
  3
Imperial24
290
     0
100
AcDbDetailViewStyle
 70
     0
 71
     0
 90
        3
 71
     1
340
11
 62
   256
 40
0.24
340
0
 62
   256
 40
0.24
300

 40
0.36
280
     3
 71
     2
340
16
 90
       25
 62
   256
 71
     3
340
11
 62
   256
 40
0.24
 90
        1
 40
0.75
 90
        1
300
%<\AcVar ViewType \f "%tc1">% %<\AcVar ViewDetailId>%\PSCALE %<\AcVar ViewScale \f "%sn">%
 71
     4
340
16
 90
       25
 62
   256
340
16
 90
       25
 62
   256
280
     0
  0
GROUP
  5
AC679
102
{ACAD_REACTORS
330
D
102
}
330
D
100
AcDbGroup
300

 70
     1
 71
     1
340
AC663
340
AC615
340
AC664
  0
GROUP
  5
AC67A
102
{ACAD_REACTORS
330
D
102
}
330
D
100
AcDbGroup
300

 70
     1
 71
     1
340
AC666
340
AC665
340
AC667
  0
GROUP
  5
AC67B
102
{ACAD_REACTORS
330
D
102
}
330
D
100
AcDbGroup
300

 70
     1
 71
     1
340
AC669
340
AC668
340
AC66A
  0
LAYOUT
  5
A21A1
102
{ACAD_REACTORS
330
1A
102
}
330
1A
100
AcDbPlotSettings
  1

  2
DWG To PDF.pc3
  4
ANSI_A_(8.50_x_11.00_Inches)
  6

 40
5.793749809265136
 41
17.79375076293945
 42
5.793746948242187
 43
17.79376220703125
 44
215.8999938964844
 45
279.3999938964844
 46
0.0
 47
0.0
 48
0.0
 49
0.0
140
0.0
141
0.0
142
1.0
143
1.0
 70
   688
 72
     0
 73
     1
 74
     5
  7
Standard Pen Settings.ctb
 75
    16
147
1.0
 76
     0
 77
     2
 78
   300
148
0.0
149
0.0
100
AcDbLayout
  1
8.5 X 11
 70
     1
 71
     1
 10
-0.7005418191744587
 20
-0.2281003861915408
 11
10.29945794052965
 21
8.271899373512569
 12
0.0
 22
0.0
 32
0.0
 14
0.0462787987426125
 24
0.0406435153359794
 34
0.0
 15
9.568239064598564
 25
7.99889492359842
 35
0.0
146
0.0
 13
0.0
 23
0.0
 33
0.0
 16
1.0
 26
0.0
 36
0.0
 17
0.0
 27
1.0
 37
0.0
 76
     0
330
A21A0
331
A21AE
1001
ACAD_PSEXT
1000
DWG To PDF.pc3
1000
DWG To PDF
1000
File
1000

1070
     0
  0
LAYOUT
  5
A21B9
102
{ACAD_REACTORS
330
1A
102
}
330
1A
100
AcDbPlotSettings
  1

  2
DWG To PDF.pc3
  4
ISO_A4_(210.00_x_297.00_MM)
  6

 40
5.793749809265136
 41
17.79375076293945
 42
5.793746948242187
 43
17.79376220703125
 44
210.0
 45
297.0
 46
0.0
 47
0.0
 48
0.0
 49
0.0
140
0.0
141
0.0
142
1.0
143
0.0393700787401575
 70
   672
 72
     1
 73
     1
 74
     5
  7
Hunter Industries.ctb
 75
    16
147
25.4
 76
     0
 77
     2
 78
   300
148
0.0
149
0.0
100
AcDbLayout
  1
A4
 70
     1
 71
     2
 10
-0.7005418191744587
 20
-0.2281003861915408
 11
10.99237156665231
 21
8.039616149241531
 12
0.0
 22
0.0
 32
0.0
 14
0.0145643619954186
 24
0.0132348038147043
 34
-0.0015258207003583
 15
10.27458914444549
 25
7.796388667592996
 35
0.0000000349246037
146
0.0
 13
0.0
 23
0.0
 33
0.0
 16
1.0
 26
0.0
 36
0.0
 17
0.0
 27
1.0
 37
0.0
 76
     0
330
A21B8
331
A21C6
1001
ACAD_PSEXT
1000
DWG To PDF.pc3
1000
DWG To PDF
1000
File
1000

1070
     0
  0
LAYOUT
  5
22
102
{ACAD_XDICTIONARY
360
66EB6
102
}
102
{ACAD_REACTORS
330
1A
102
}
330
1A
100
AcDbPlotSettings
  1

  2
DWG To PDF.pc3
  4
ANSI_full_bleed_A_(8.50_x_11.00_Inches)
  6

 40
0.7937499880790711
 41
0.7937499880790711
 42
0.7937469482421875
 43
0.79376220703125
 44
215.8999938964844
 45
279.3999938964844
 46
30.37052290086102
 47
0.0
 48
-146.9342066687381
 49
-1.639012634498612
140
-81.17209046769231
141
34.71350671378767
142
1.0
143
6.012536734408003
 70
 11956
 72
     0
 73
     1
 74
     4
  7
Standard Pen Settings.ctb
 75
     0
147
0.1663191501645703
 76
     0
 77
     2
 78
   300
148
3732.128849385947
149
41.63092091626476
100
AcDbLayout
  1
Model
 70
     1
 71
     0
 10
0.0
 20
0.0
 11
12.0
 21
9.0
 12
0.0
 22
0.0
 32
0.0
 14
0.0
 24
0.0
 34
0.0
 15
0.0
 25
0.0
 35
0.0
146
0.0
 13
0.0
 23
0.0
 33
0.0
 16
1.0
 26
0.0
 36
0.0
 17
0.0
 27
1.0
 37
0.0
 76
     0
330
1F
331
DAB
1001
ACAD_PSEXT
1000
DWG To PDF.pc3
1000
DWG To PDF
1000
File
1000

1070
     0
  0
MATERIAL
  5
97
102
{ACAD_REACTORS
330
72
102
}
330
72
100
AcDbMaterial
  1
ByBlock
 73
     1
 78
     1
172
     1
176
     1
270
     1
274
     1
 94
       63
  0
MATERIAL
  5
96
102
{ACAD_REACTORS
330
72
102
}
330
72
100
AcDbMaterial
  1
ByLayer
 73
     1
 78
     1
172
     1
176
     1
270
     1
274
     1
 94
       63
  0
MATERIAL
  5
98
102
{ACAD_REACTORS
330
72
102
}
330
72
100
AcDbMaterial
  1
Global
 73
     1
 78
     1
172
     1
176
     1
270
     1
274
     1
 94
       63
  0
MLEADERSTYLE
  5
A34
102
{ACAD_REACTORS
330
A33
102
}
330
A33
100
AcDbMLeaderStyle
179
     2
170
     2
171
     1
172
     0
 90
        2
 40
0.0
 41
0.0
173
     1
 91
-1056964608
340
14
 92
       -2
290
     1
 42
0.09
291
     1
 43
0.36
  3
Standard
 44
0.18
300

342
11
174
     1
178
     6
175
     1
176
     0
 93
-1056964608
 45
0.18
292
     0
297
     0
 46
0.18
 94
-1056964608
 47
1.0
 49
1.0
140
1.0
293
     1
141
0.0
294
     1
177
     0
142
1.0
295
     0
296
     0
143
0.125
271
     0
272
     9
273
     9
298
     0
  0
MLINESTYLE
  5
18
102
{ACAD_REACTORS
330
17
102
}
330
17
100
AcDbMlineStyle
  2
STANDARD
 70
     0
  3

 62
   256
 51
90.0
 52
90.0
 71
     2
 49
0.5
 62
   256
  6
BYLAYER
 49
-0.5
 62
   256
  6
BYLAYER
  0
PLOTSETTINGS
  5
E0
102
{ACAD_REACTORS
330
19
102
}
330
19
100
AcDbPlotSettings
  1
500 - 24x36
  2
HP DesignJet 500 42 by HP.pc3
  4
User1659
  6

 40
0.0
 41
0.0
 42
0.0
 43
0.0
 44
914.4000244140626
 45
609.6000366210937
 46
0.0000122070312948
 47
0.000018310546897
 48
0.0
 49
0.0
140
36.0
141
24.0
142
1.0
143
1.0
 70
  2740
 72
     0
 73
     0
 74
     4
  7
DVD 2005.ctb
 75
    16
147
1.0
 76
     0
 77
     2
 78
   300
148
0.0
149
0.0
1001
ACAD_PSEXT
1000
HP DesignJet 500 42 by HP.pc3
1000
HP DesignJet 500 42 by HP
1000
\\bobxp2
1000

1070
     0
  0
PLOTSETTINGS
  5
DE
102
{ACAD_REACTORS
330
19
102
}
330
19
100
AcDbPlotSettings
  1
500 - 30x42 Landscape
  2
HP DesignJet 500 42 by HP.pc3
  4
User637
  6

 40
0.0
 41
0.0
 42
0.0
 43
0.0
 44
762.0
 45
1066.800048828125
 46
-0.0000000000000902
 47
0.0000244140624993
 48
-44.0
 49
0.0000000000000071
140
-2.0
141
30.00000000000002
142
1.0
143
1.0
 70
  2804
 72
     0
 73
     1
 74
     4
  7
DVD 2005.ctb
 75
    16
147
1.0
 76
     0
 77
     2
 78
   300
148
1117.6
149
-0.0000000000001805
1001
ACAD_PSEXT
1000
HP DesignJet 500 42 by HP.pc3
1000
HP DesignJet 500 42 by HP
1000
\\bobxp2
1000

1070
     0
  0
PLOTSETTINGS
  5
DF
102
{ACAD_REACTORS
330
19
102
}
330
19
100
AcDbPlotSettings
  1
500 - 30x42 Portrait
  2
HP DesignJet 500 42 by HP.pc3
  4
User637
  6

 40
0.0
 41
0.0
 42
0.0
 43
0.0
 44
762.0
 45
1066.800048828125
 46
-0.0000000000000902
 47
0.0000244140626798
 48
-38.0
 49
34.00000000000002
140
-7.999999999999992
141
76.0
142
1.0
143
1.0
 70
  2804
 72
     0
 73
     0
 74
     4
  7
DVD 2005.ctb
 75
    16
147
1.0
 76
     0
 77
     2
 78
   300
148
965.1999999999999
149
-863.6000000000004
1001
ACAD_PSEXT
1000
HP DesignJet 500 42 by HP.pc3
1000
HP DesignJet 500 42 by HP
1000
\\bobxp2
1000

1070
     0
  0
PLOTSETTINGS
  5
1052
102
{ACAD_REACTORS
330
19
102
}
330
19
100
AcDbPlotSettings
  1
6200 8.5x11
  2
HP Officejet 6200 series (Copy 1)
  4
Letter
  6

 40
3.96875
 41
3.799404859542846
 42
3.968734741210937
 43
3.17498779296875
 44
215.8999938964844
 45
279.3999938964844
 46
0.0
 47
0.0
 48
0.0
 49
0.0
140
0.0
141
0.0
142
1.0
143
1.0
 70
 15024
 72
     0
 73
     1
 74
     5
  7
DVD 2005.ctb
 75
    16
147
1.0
 76
     0
 77
     2
 78
   300
148
0.0
149
0.0
1001
ACAD_PSEXT
1000
HP Officejet 6200 series (Copy 1)
1000
HP Officejet 6200 series
1000
USB002
1000

1070
     0
  0
PLOTSETTINGS
  5
E1
102
{ACAD_REACTORS
330
19
102
}
330
19
100
AcDbPlotSettings
  1
9800 - 11x17 Reduced
  2
HP Deskjet 9800 Series.pc3
  4
Tabloid
  6

 40
4.011083126068115
 41
15.65274238586425
 42
4.011077880859375
 43
3.17498779296875
 44
279.3999938964844
 45
431.7999877929687
 46
0.0
 47
2.952754139900229
 48
0.0
 49
0.0
140
36.0
141
24.0
142
1.0
143
2.246314643717012
 70
  2740
 72
     0
 73
     1
 74
     4
  7
DVD 2005.ctb
 75
     0
147
0.4451736103831314
 76
     0
 77
     2
 78
   300
148
0.0
149
0.0
1001
ACAD_PSEXT
1000
HP Deskjet 9800 Series.pc3
1000
HP Deskjet 9800 Series
1000
\\Server
1000

1070
     0
  0
PLOTSETTINGS
  5
E2
102
{ACAD_REACTORS
330
19
102
}
330
19
100
AcDbPlotSettings
  1
K550 - 8x11 Reduced
  2
HP Officejet Pro K550 Series.pc3
  4
Letter
  6

 40
4.095749855041503
 41
12.73173427581787
 42
4.095748901367187
 43
4.09576416015625
 44
215.8999938964844
 45
279.3999938964844
 46
16.3300824165344
 47
0.0
 48
0.0
 49
0.0
140
36.0
141
24.0
142
1.0
143
3.482466807486017
 70
  2804
 72
     0
 73
     1
 74
     4
  7
DVD 2005.ctb
 75
     0
147
0.2871527728133314
 76
     0
 77
     2
 78
   300
148
0.0
149
0.0
1001
ACAD_PSEXT
1000
HP Officejet Pro K550 Series.pc3
1000
HP Officejet Pro K550 Series
1000
Next to Jodi
1000

1070
     0
  0
ACDBPLACEHOLDER
  5
F
102
{ACAD_REACTORS
330
E
102
}
330
E
  0
DICTIONARY
  5
A15E6
330
A15E5
100
AcDbDictionary
280
     1
281
     1
  3
ADSK_XREC_MENTALRAYSETTINGSINFO
360
A15E7
  0
SCALE
  5
4D48B
102
{ACAD_REACTORS
330
A11
102
}
330
A11
100
AcDbScale
 70
     0
300
1" = 40'
140
1.0
141
40.0
290
     0
  0
SCALE
  5
4D48C
102
{ACAD_REACTORS
330
A11
102
}
330
A11
100
AcDbScale
 70
     0
300
1" = 1'
140
1.0
141
1.0
290
     0
  0
SCALE
  5
5C55A
102
{ACAD_REACTORS
330
A11
102
}
330
A11
100
AcDbScale
 70
     0
300
1" =10'_XREF
140
1.0
141
10.0
290
     0
  0
SCALE
  5
5C55B
102
{ACAD_REACTORS
330
A11
102
}
330
A11
100
AcDbScale
 70
     0
300
2" = 1'-0"_XREF
140
2.0
141
12.0
290
     0
  0
SCALE
  5
A12
102
{ACAD_REACTORS
330
A11
102
}
330
A11
100
AcDbScale
 70
     0
300
1:1
140
1.0
141
1.0
290
     0
  0
SCALE
  5
1DC91
102
{ACAD_REACTORS
330
A11
102
}
330
A11
100
AcDbScale
 70
     0
300
1:2
140
1.0
141
2.0
290
     0
  0
SCALE
  5
1DC92
102
{ACAD_REACTORS
330
A11
102
}
330
A11
100
AcDbScale
 70
     0
300
1:4
140
1.0
141
4.0
290
     0
  0
SCALE
  5
1DC93
102
{ACAD_REACTORS
330
A11
102
}
330
A11
100
AcDbScale
 70
     0
300
1:5
140
1.0
141
5.0
290
     0
  0
SCALE
  5
1DC94
102
{ACAD_REACTORS
330
A11
102
}
330
A11
100
AcDbScale
 70
     0
300
1:8
140
1.0
141
8.0
290
     0
  0
SCALE
  5
1DC95
102
{ACAD_REACTORS
330
A11
102
}
330
A11
100
AcDbScale
 70
     0
300
1:10
140
1.0
141
10.0
290
     0
  0
SCALE
  5
1DC96
102
{ACAD_REACTORS
330
A11
102
}
330
A11
100
AcDbScale
 70
     0
300
1:16
140
1.0
141
16.0
290
     0
  0
SCALE
  5
1DC97
102
{ACAD_REACTORS
330
A11
102
}
330
A11
100
AcDbScale
 70
     0
300
1:20
140
1.0
141
20.0
290
     0
  0
SCALE
  5
1DC98
102
{ACAD_REACTORS
330
A11
102
}
330
A11
100
AcDbScale
 70
     0
300
1:30
140
1.0
141
30.0
290
     0
  0
SCALE
  5
1DC99
102
{ACAD_REACTORS
330
A11
102
}
330
A11
100
AcDbScale
 70
     0
300
1:40
140
1.0
141
40.0
290
     0
  0
SCALE
  5
1DC9A
102
{ACAD_REACTORS
330
A11
102
}
330
A11
100
AcDbScale
 70
     0
300
1:50
140
1.0
141
50.0
290
     0
  0
SCALE
  5
1DC9B
102
{ACAD_REACTORS
330
A11
102
}
330
A11
100
AcDbScale
 70
     0
300
1:100
140
1.0
141
100.0
290
     0
  0
SCALE
  5
1DC9C
102
{ACAD_REACTORS
330
A11
102
}
330
A11
100
AcDbScale
 70
     0
300
2:1
140
2.0
141
1.0
290
     0
  0
SCALE
  5
1DC9D
102
{ACAD_REACTORS
330
A11
102
}
330
A11
100
AcDbScale
 70
     0
300
4:1
140
4.0
141
1.0
290
     0
  0
SCALE
  5
1DC9E
102
{ACAD_REACTORS
330
A11
102
}
330
A11
100
AcDbScale
 70
     0
300
8:1
140
8.0
141
1.0
290
     0
  0
SCALE
  5
1DC9F
102
{ACAD_REACTORS
330
A11
102
}
330
A11
100
AcDbScale
 70
     0
300
10:1
140
10.0
141
1.0
290
     0
  0
SCALE
  5
1DCA0
102
{ACAD_REACTORS
330
A11
102
}
330
A11
100
AcDbScale
 70
     0
300
100:1
140
100.0
141
1.0
290
     0
  0
SCALE
  5
1DCA1
102
{ACAD_REACTORS
330
A11
102
}
330
A11
100
AcDbScale
 70
     0
300
1/128" = 1'-0"
140
0.0078125
141
12.0
290
     0
  0
SCALE
  5
1DCA2
102
{ACAD_REACTORS
330
A11
102
}
330
A11
100
AcDbScale
 70
     0
300
1/64" = 1'-0"
140
0.015625
141
12.0
290
     0
  0
SCALE
  5
1DCA3
102
{ACAD_REACTORS
330
A11
102
}
330
A11
100
AcDbScale
 70
     0
300
1/32" = 1'-0"
140
0.03125
141
12.0
290
     0
  0
SCALE
  5
1DCA4
102
{ACAD_REACTORS
330
A11
102
}
330
A11
100
AcDbScale
 70
     0
300
1/16" = 1'-0"
140
0.0625
141
12.0
290
     0
  0
SCALE
  5
1DCA5
102
{ACAD_REACTORS
330
A11
102
}
330
A11
100
AcDbScale
 70
     0
300
3/32" = 1'-0"
140
0.09375
141
12.0
290
     0
  0
SCALE
  5
1DCA6
102
{ACAD_REACTORS
330
A11
102
}
330
A11
100
AcDbScale
 70
     0
300
1/8" = 1'-0"
140
0.125
141
12.0
290
     0
  0
SCALE
  5
1DCA7
102
{ACAD_REACTORS
330
A11
102
}
330
A11
100
AcDbScale
 70
     0
300
3/16" = 1'-0"
140
0.1875
141
12.0
290
     0
  0
SCALE
  5
1DCA8
102
{ACAD_REACTORS
330
A11
102
}
330
A11
100
AcDbScale
 70
     0
300
1/4" = 1'-0"
140
0.25
141
12.0
290
     0
  0
SCALE
  5
1DCA9
102
{ACAD_REACTORS
330
A11
102
}
330
A11
100
AcDbScale
 70
     0
300
3/8" = 1'-0"
140
0.375
141
12.0
290
     0
  0
SCALE
  5
1DCAA
102
{ACAD_REACTORS
330
A11
102
}
330
A11
100
AcDbScale
 70
     0
300
1/2" = 1'-0"
140
0.5
141
12.0
290
     0
  0
SCALE
  5
1DCAB
102
{ACAD_REACTORS
330
A11
102
}
330
A11
100
AcDbScale
 70
     0
300
3/4" = 1'-0"
140
0.75
141
12.0
290
     0
  0
SCALE
  5
1DCAC
102
{ACAD_REACTORS
330
A11
102
}
330
A11
100
AcDbScale
 70
     0
300
1" = 1'-0"
140
1.0
141
12.0
290
     0
  0
SCALE
  5
1DCAD
102
{ACAD_REACTORS
330
A11
102
}
330
A11
100
AcDbScale
 70
     0
300
1-1/2" = 1'-0"
140
1.5
141
12.0
290
     0
  0
SCALE
  5
1DCAE
102
{ACAD_REACTORS
330
A11
102
}
330
A11
100
AcDbScale
 70
     0
300
3" = 1'-0"
140
3.0
141
12.0
290
     0
  0
SCALE
  5
1DCAF
102
{ACAD_REACTORS
330
A11
102
}
330
A11
100
AcDbScale
 70
     0
300
6" = 1'-0"
140
6.0
141
12.0
290
     0
  0
SCALE
  5
1DCB0
102
{ACAD_REACTORS
330
A11
102
}
330
A11
100
AcDbScale
 70
     0
300
1'-0" = 1'-0"
140
12.0
141
12.0
290
     1
  0
ACDBSECTIONVIEWSTYLE
  5
5C43E
102
{ACAD_XDICTIONARY
360
A21DD
102
}
102
{ACAD_REACTORS
330
5C43D
102
}
330
5C43D
100
AcDbModelDocViewStyle
 70
     0
  3
Imperial24
290
     0
100
AcDbSectionViewStyle
 70
     0
 71
     0
 90
       78
 71
     1
340
11
 62
   256
 40
0.24
340
0
340
0
 62
   256
 40
0.24
300
I, O, Q, S, X, Z
 40
0.48
 90
        3
 40
0.18
 90
        1
 71
     2
340
16
 90
       25
 62
   256
340
16
 90
       50
 62
   256
 40
0.24
 40
0.0
 40
0.24
 71
     3
340
11
 62
   256
 40
0.24
 90
        1
 40
0.75
 90
        1
300
%<\AcVar ViewType \f "%tc1">% %<\AcVar ViewSectionStartId>%-%<\AcVar ViewSectionEndId>%\PSCALE %<\AcVar ViewScale \f "%sn">%
 71
     4
 62
   256
 62
   257
300
ANSI31
 40
1.0
 90
        0
290
     0
290
     0
 90
        6
 40
0.0
 40
1.570796326794896
 40
0.2617993877991494
 40
1.308996938995747
 40
-0.2617993877991494
 40
1.832595714594046
  0
TABLESTYLE
  5
87
102
{ACAD_XDICTIONARY
360
B4E
102
}
102
{ACAD_REACTORS
330
86
102
}
330
86
100
AcDbTableStyle
280
     0
  3
Standard
 70
     0
 71
     0
 40
0.06
 41
0.06
280
     0
281
     0
  7
Standard
140
0.18
170
     2
 62
     0
 63
     7
283
     0
 90
      512
 91
        0
  1

274
    -2
284
     1
 64
     0
275
    -2
285
     1
 65
     0
276
    -2
286
     1
 66
     0
277
    -2
287
     1
 67
     0
278
    -2
288
     1
 68
     0
279
    -2
289
     1
 69
     0
  7
Standard
140
0.25
170
     5
 62
     0
 63
     7
283
     0
 90
      512
 91
        0
  1

274
    -2
284
     1
 64
     0
275
    -2
285
     1
 65
     0
276
    -2
286
     1
 66
     0
277
    -2
287
     1
 67
     0
278
    -2
288
     1
 68
     0
279
    -2
289
     1
 69
     0
  7
Standard
140
0.18
170
     5
 62
     0
 63
     7
283
     0
 90
      512
 91
        0
  1

274
    -2
284
     1
 64
     0
275
    -2
285
     1
 65
     0
276
    -2
286
     1
 66
     0
277
    -2
287
     1
 67
     0
278
    -2
288
     1
 68
     0
279
    -2
289
     1
 69
     0
  0
VISUALSTYLE
  5
9F
102
{ACAD_REACTORS
330
99
102
}
330
99
100
AcDbVisualStyle
  2
2dWireframe
 70
     4
177
     3
291
     0
 70
    58
 90
        0
176
     1
 90
        2
176
     1
 90
        1
176
     1
 90
        0
176
     1
 40
0.6
176
     1
 40
30.0
176
     1
 62
     7
420
 16777215
176
     1
 90
        1
176
     1
 90
        4
176
     1
 62
     7
176
     1
 62
   257
176
     1
 90
        1
176
     1
 90
        1
176
     1
 40
1.0
176
     1
 90
        0
176
     1
 62
   257
176
     1
 40
1.0
176
     1
 90
        1
176
     1
 90
        6
176
     1
 90
        2
176
     1
 62
     7
176
     1
 90
        5
176
     1
 90
        0
176
     1
 90
        0
176
     1
290
     0
176
     1
 90
        1
176
     1
 40
0.0
176
     1
 90
        0
176
     1
290
     1
176
     1
290
     1
176
     1
290
     0
176
     1
290
     0
176
     1
290
     0
176
     1
290
     0
176
     1
290
     0
176
     1
290
     0
176
     1
290
     0
176
     1
 90
       50
176
     1
 40
0.0
176
     1
 40
1.0
176
     1
 90
        0
176
     1
 62
    18
420
        0
176
     1
 90
       50
176
     1
 90
        3
176
     1
 62
     5
420
      255
176
     1
290
     0
176
     1
 90
       50
176
     1
 90
       50
176
     1
 90
       50
176
     1
290
     0
176
     1
 90
       50
176
     1
 62
   256
176
     0
 40
1.0
176
     0
 90
        2
176
     1
  1
strokes_ogs.tif
176
     1
290
     0
176
     1
 40
1.0
176
     1
 40
1.0
176
     1
  0
VISUALSTYLE
  5
A1
102
{ACAD_REACTORS
330
99
102
}
330
99
100
AcDbVisualStyle
  2
3D Hidden
 70
     6
177
     3
291
     0
 70
    58
 90
        1
176
     1
 90
        2
176
     1
 90
        2
176
     1
 90
        0
176
     1
 40
0.6
176
     1
 40
30.0
176
     1
 62
     7
420
 16777215
176
     1
 90
        2
176
     1
 90
        2
176
     1
 62
     7
176
     1
 62
   257
176
     1
 90
        2
176
     1
 90
        1
176
     1
 40
40.0
176
     1
 90
        0
176
     1
 62
   257
176
     1
 40
1.0
176
     1
 90
        1
176
     1
 90
        6
176
     1
 90
        2
176
     1
 62
     7
176
     1
 90
        3
176
     1
 90
        0
176
     1
 90
        0
176
     1
290
     0
176
     1
 90
        1
176
     1
 40
0.0
176
     1
 90
        0
176
     1
290
     0
176
     1
290
     1
176
     1
290
     1
176
     1
290
     0
176
     1
290
     0
176
     1
290
     0
176
     1
290
     0
176
     1
290
     0
176
     1
290
     0
176
     1
 90
       50
176
     1
 40
0.0
176
     1
 40
1.0
176
     1
 90
        0
176
     1
 62
    18
420
        0
176
     1
 90
       50
176
     1
 90
        3
176
     1
 62
     5
420
      255
176
     1
290
     0
176
     1
 90
       50
176
     1
 90
       50
176
     1
 90
       50
176
     1
290
     0
176
     1
 90
       50
176
     1
 62
   256
176
     0
 40
1.0
176
     0
 90
        2
176
     1
  1
strokes_ogs.tif
176
     1
290
     0
176
     1
 40
1.0
176
     1
 40
1.0
176
     1
  0
VISUALSTYLE
  5
A0
102
{ACAD_REACTORS
330
99
102
}
330
99
100
AcDbVisualStyle
  2
3dWireframe
 70
     5
177
     3
291
     0
 70
    58
 90
        0
176
     1
 90
        2
176
     1
 90
        1
176
     1
 90
        0
176
     1
 40
0.6
176
     1
 40
30.0
176
     1
 62
     7
420
 16777215
176
     1
 90
        1
176
     1
 90
        4
176
     1
 62
     7
176
     1
 62
   257
176
     1
 90
        1
176
     1
 90
        1
176
     1
 40
1.0
176
     1
 90
        0
176
     1
 62
   257
176
     1
 40
1.0
176
     1
 90
        1
176
     1
 90
        6
176
     1
 90
        2
176
     1
 62
     7
176
     1
 90
        5
176
     1
 90
        0
176
     1
 90
        0
176
     1
290
     0
176
     1
 90
        1
176
     1
 40
0.0
176
     1
 90
        0
176
     1
290
     0
176
     1
290
     1
176
     1
290
     1
176
     1
290
     0
176
     1
290
     0
176
     1
290
     0
176
     1
290
     0
176
     1
290
     0
176
     1
290
     0
176
     1
 90
       50
176
     1
 40
0.0
176
     1
 40
1.0
176
     1
 90
        0
176
     1
 62
    18
420
        0
176
     1
 90
       50
176
     1
 90
        3
176
     1
 62
     5
420
      255
176
     1
290
     0
176
     1
 90
       50
176
     1
 90
       50
176
     1
 90
       50
176
     1
290
     0
176
     1
 90
       50
176
     1
 62
   256
176
     0
 40
1.0
176
     0
 90
        2
176
     1
  1
strokes_ogs.tif
176
     1
290
     0
176
     1
 40
1.0
176
     1
 40
1.0
176
     1
  0
VISUALSTYLE
  5
9E
102
{ACAD_REACTORS
330
99
102
}
330
99
100
AcDbVisualStyle
  2
Basic
 70
     7
177
     3
291
     1
 70
    58
 90
        1
176
     1
 90
        0
176
     1
 90
        1
176
     1
 90
        0
176
     1
 40
0.6
176
     1
 40
30.0
176
     1
 62
     7
420
 16777215
176
     1
 90
        0
176
     1
 90
        4
176
     1
 62
     7
176
     1
 62
   257
176
     1
 90
        1
176
     1
 90
        1
176
     1
 40
1.0
176
     1
 90
        8
176
     1
 62
     7
176
     1
 40
1.0
176
     1
 90
        1
176
     1
 90
        6
176
     1
 90
        2
176
     1
 62
     7
176
     1
 90
        5
176
     1
 90
        0
176
     1
 90
        0
176
     1
290
     0
176
     1
 90
        1
176
     1
 40
0.0
176
     1
 90
        0
176
     1
290
     0
176
     1
290
     1
176
     1
290
     1
176
     1
290
     0
176
     1
290
     0
176
     1
290
     0
176
     1
290
     0
176
     1
290
     0
176
     1
290
     0
176
     1
 90
       50
176
     1
 40
0.0
176
     1
 40
1.0
176
     1
 90
        0
176
     1
 62
    18
420
        0
176
     1
 90
       50
176
     1
 90
        3
176
     1
 62
     5
420
      255
176
     1
290
     0
176
     1
 90
       50
176
     1
 90
       50
176
     1
 90
       50
176
     1
290
     0
176
     1
 90
       50
176
     1
 62
   256
176
     0
 40
1.0
176
     0
 90
        2
176
     1
  1
strokes_ogs.tif
176
     1
290
     0
176
     1
 40
1.0
176
     1
 40
1.0
176
     1
  0
VISUALSTYLE
  5
A5
102
{ACAD_REACTORS
330
99
102
}
330
99
100
AcDbVisualStyle
  2
Brighten
 70
    12
177
     3
291
     1
 70
    58
 90
        2
176
     1
 90
        2
176
     1
 90
        1
176
     1
 90
        0
176
     1
 40
0.6
176
     1
 40
30.0
176
     1
 62
     7
420
 16777215
176
     1
 90
        1
176
     1
 90
        4
176
     1
 62
     7
176
     1
 62
   257
176
     1
 90
        1
176
     1
 90
        1
176
     1
 40
1.0
176
     1
 90
        8
176
     1
 62
     7
176
     1
 40
1.0
176
     1
 90
        1
176
     1
 90
        6
176
     1
 90
        2
176
     1
 62
     7
176
     1
 90
        5
176
     1
 90
        0
176
     1
 90
        0
176
     1
290
     0
176
     1
 90
        1
176
     1
 40
50.0
176
     1
 90
        0
176
     1
290
     0
176
     1
290
     1
176
     1
290
     1
176
     1
290
     0
176
     1
290
     0
176
     1
290
     0
176
     1
290
     0
176
     1
290
     0
176
     1
290
     0
176
     1
 90
       50
176
     1
 40
0.0
176
     1
 40
1.0
176
     1
 90
        0
176
     1
 62
    18
420
        0
176
     1
 90
       50
176
     1
 90
        3
176
     1
 62
     5
420
      255
176
     1
290
     0
176
     1
 90
       50
176
     1
 90
       50
176
     1
 90
       50
176
     1
290
     0
176
     1
 90
       50
176
     1
 62
   256
176
     0
 40
1.0
176
     0
 90
        2
176
     1
  1
strokes_ogs.tif
176
     1
290
     0
176
     1
 40
1.0
176
     1
 40
1.0
176
     1
  0
VISUALSTYLE
  5
A9
102
{ACAD_REACTORS
330
99
102
}
330
99
100
AcDbVisualStyle
  2
ColorChange
 70
    16
177
     3
291
     1
 70
    58
 90
        2
176
     1
 90
        2
176
     1
 90
        3
176
     1
 90
        0
176
     1
 40
0.6
176
     1
 40
30.0
176
     1
 62
     8
420
  8421504
176
     1
 90
        1
176
     1
 90
        4
176
     1
 62
     7
176
     1
 62
   257
176
     1
 90
        1
176
     1
 90
        1
176
     1
 40
1.0
176
     1
 90
        8
176
     1
 62
     8
420
  8421504
176
     1
 40
1.0
176
     1
 90
        1
176
     1
 90
        6
176
     1
 90
        2
176
     1
 62
     7
176
     1
 90
        5
176
     1
 90
        0
176
     1
 90
        0
176
     1
290
     0
176
     1
 90
        1
176
     1
 40
0.0
176
     1
 90
        0
176
     1
290
     0
176
     1
290
     1
176
     1
290
     1
176
     1
290
     0
176
     1
290
     0
176
     1
290
     0
176
     1
290
     0
176
     1
290
     0
176
     1
290
     0
176
     1
 90
       50
176
     1
 40
0.0
176
     1
 40
1.0
176
     1
 90
        0
176
     1
 62
    18
420
        0
176
     1
 90
       50
176
     1
 90
        3
176
     1
 62
     5
420
      255
176
     1
290
     0
176
     1
 90
       50
176
     1
 90
       50
176
     1
 90
       50
176
     1
290
     0
176
     1
 90
       50
176
     1
 62
   256
176
     0
 40
1.0
176
     0
 90
        2
176
     1
  1
strokes_ogs.tif
176
     1
290
     0
176
     1
 40
1.0
176
     1
 40
1.0
176
     1
  0
VISUALSTYLE
  5
A2
102
{ACAD_REACTORS
330
99
102
}
330
99
100
AcDbVisualStyle
  2
Conceptual
 70
     9
177
     3
291
     0
 70
    58
 90
        3
176
     1
 90
        2
176
     1
 90
        1
176
     1
 90
        0
176
     1
 40
0.6
176
     1
 40
30.0
176
     1
 62
     7
420
 16777215
176
     1
 90
        2
176
     1
 90
        2
176
     1
 62
     7
176
     1
 62
   257
176
     1
 90
        1
176
     1
 90
        1
176
     1
 40
40.0
176
     1
 90
        8
176
     1
 62
     7
176
     1
 40
1.0
176
     1
 90
        1
176
     1
 90
        6
176
     1
 90
        2
176
     1
 62
     7
176
     1
 90
        3
176
     1
 90
        0
176
     1
 90
        0
176
     1
290
     0
176
     1
 90
        1
176
     1
 40
0.0
176
     1
 90
        0
176
     1
290
     0
176
     1
290
     1
176
     1
290
     1
176
     1
290
     0
176
     1
290
     0
176
     1
290
     0
176
     1
290
     0
176
     1
290
     0
176
     1
290
     0
176
     1
 90
       50
176
     1
 40
0.0
176
     1
 40
1.0
176
     1
 90
        0
176
     1
 62
    18
420
        0
176
     1
 90
       50
176
     1
 90
        3
176
     1
 62
     5
420
      255
176
     1
290
     0
176
     1
 90
       50
176
     1
 90
       50
176
     1
 90
       50
176
     1
290
     0
176
     1
 90
       50
176
     1
 62
   256
176
     0
 40
1.0
176
     0
 90
        2
176
     1
  1
strokes_ogs.tif
176
     1
290
     0
176
     1
 40
1.0
176
     1
 40
1.0
176
     1
  0
VISUALSTYLE
  5
A4
102
{ACAD_REACTORS
330
99
102
}
330
99
100
AcDbVisualStyle
  2
Dim
 70
    11
177
     3
291
     1
 70
    58
 90
        2
176
     1
 90
        2
176
     1
 90
        1
176
     1
 90
        0
176
     1
 40
0.6
176
     1
 40
30.0
176
     1
 62
     7
420
 16777215
176
     1
 90
        1
176
     1
 90
        4
176
     1
 62
     7
176
     1
 62
   257
176
     1
 90
        1
176
     1
 90
        1
176
     1
 40
1.0
176
     1
 90
        8
176
     1
 62
     7
176
     1
 40
1.0
176
     1
 90
        1
176
     1
 90
        6
176
     1
 90
        2
176
     1
 62
     7
176
     1
 90
        5
176
     1
 90
        0
176
     1
 90
        0
176
     1
290
     0
176
     1
 90
        1
176
     1
 40
-50.0
176
     1
 90
        0
176
     1
290
     0
176
     1
290
     1
176
     1
290
     1
176
     1
290
     0
176
     1
290
     0
176
     1
290
     0
176
     1
290
     0
176
     1
290
     0
176
     1
290
     0
176
     1
 90
       50
176
     1
 40
0.0
176
     1
 40
1.0
176
     1
 90
        0
176
     1
 62
    18
420
        0
176
     1
 90
       50
176
     1
 90
        3
176
     1
 62
     5
420
      255
176
     1
290
     0
176
     1
 90
       50
176
     1
 90
       50
176
     1
 90
       50
176
     1
290
     0
176
     1
 90
       50
176
     1
 62
   256
176
     0
 40
1.0
176
     0
 90
        2
176
     1
  1
strokes_ogs.tif
176
     1
290
     0
176
     1
 40
1.0
176
     1
 40
1.0
176
     1
  0
VISUALSTYLE
  5
5C43C
102
{ACAD_REACTORS
330
99
102
}
330
99
100
AcDbVisualStyle
  2
EdgeColorOff
 70
    22
177
     3
291
     1
 70
    58
 90
        2
176
     0
 90
        2
176
     0
 90
        0
176
     0
 90
        0
176
     0
 40
0.6
176
     0
 40
30.0
176
     0
 62
     7
420
 16777215
176
     0
 90
        1
176
     0
 90
        4
176
     0
 62
     7
176
     0
 62
   257
176
     0
 90
        1
176
     0
 90
        1
176
     0
 40
1.0
176
     0
 90
        8
176
     2
 62
     7
176
     0
 40
1.0
176
     0
 90
        1
176
     0
 90
        6
176
     0
 90
        2
176
     0
 62
     7
176
     0
 90
        5
176
     0
 90
        0
176
     0
 90
        0
176
     0
290
     0
176
     0
 90
        1
176
     0
 40
0.0
176
     0
 90
        0
176
     0
290
     0
176
     0
290
     1
176
     0
290
     1
176
     0
290
     0
176
     0
290
     0
176
     0
290
     0
176
     0
290
     0
176
     0
290
     0
176
     0
290
     0
176
     0
 90
       50
176
     0
 40
0.0
176
     0
 40
1.0
176
     0
 90
        0
176
     0
 62
    18
420
        0
176
     0
 90
       50
176
     0
 90
        3
176
     0
 62
     5
420
      255
176
     0
290
     0
176
     0
 90
       50
176
     0
 90
       50
176
     0
 90
       50
176
     0
290
     0
176
     0
 90
       50
176
     0
 62
   256
176
     0
 40
1.0
176
     0
 90
        2
176
     0
  1
strokes_ogs.tif
176
     0
290
     0
176
     0
 40
1.0
176
     0
 40
1.0
176
     0
  0
VISUALSTYLE
  5
A8
102
{ACAD_REACTORS
330
99
102
}
330
99
100
AcDbVisualStyle
  2
Facepattern
 70
    15
177
     3
291
     1
 70
    58
 90
        2
176
     1
 90
        2
176
     1
 90
        1
176
     1
 90
        0
176
     1
 40
0.6
176
     1
 40
30.0
176
     1
 62
     7
420
 16777215
176
     1
 90
        1
176
     1
 90
        4
176
     1
 62
     7
176
     1
 62
   257
176
     1
 90
        1
176
     1
 90
        1
176
     1
 40
1.0
176
     1
 90
        8
176
     1
 62
     7
176
     1
 40
1.0
176
     1
 90
        1
176
     1
 90
        6
176
     1
 90
        2
176
     1
 62
     7
176
     1
 90
        5
176
     1
 90
        0
176
     1
 90
        0
176
     1
290
     0
176
     1
 90
        1
176
     1
 40
0.0
176
     1
 90
        0
176
     1
290
     0
176
     1
290
     1
176
     1
290
     1
176
     1
290
     0
176
     1
290
     0
176
     1
290
     0
176
     1
290
     0
176
     1
290
     0
176
     1
290
     0
176
     1
 90
       50
176
     1
 40
0.0
176
     1
 40
1.0
176
     1
 90
        0
176
     1
 62
    18
420
        0
176
     1
 90
       50
176
     1
 90
        3
176
     1
 62
     5
420
      255
176
     1
290
     0
176
     1
 90
       50
176
     1
 90
       50
176
     1
 90
       50
176
     1
290
     0
176
     1
 90
       50
176
     1
 62
   256
176
     0
 40
1.0
176
     0
 90
        2
176
     1
  1
strokes_ogs.tif
176
     1
290
     0
176
     1
 40
1.0
176
     1
 40
1.0
176
     1
  0
VISUALSTYLE
  5
9A
102
{ACAD_REACTORS
330
99
102
}
330
99
100
AcDbVisualStyle
  2
Flat
 70
     0
177
     3
291
     1
 70
    58
 90
        2
176
     1
 90
        1
176
     1
 90
        1
176
     1
 90
        2
176
     1
 40
0.6
176
     1
 40
30.0
176
     1
 62
     7
420
 16777215
176
     1
 90
        0
176
     1
 90
        4
176
     1
 62
     7
176
     1
 62
   257
176
     1
 90
        1
176
     1
 90
        1
176
     1
 40
1.0
176
     1
 90
        8
176
     1
 62
     7
176
     1
 40
1.0
176
     1
 90
        1
176
     1
 90
        6
176
     1
 90
        2
176
     1
 62
     7
176
     1
 90
        5
176
     1
 90
        0
176
     1
 90
        0
176
     1
290
     0
176
     1
 90
        1
176
     1
 40
0.0
176
     1
 90
        0
176
     1
290
     0
176
     1
290
     1
176
     1
290
     1
176
     1
290
     0
176
     1
290
     0
176
     1
290
     0
176
     1
290
     0
176
     1
290
     0
176
     1
290
     0
176
     1
 90
       50
176
     1
 40
0.0
176
     1
 40
1.0
176
     1
 90
        0
176
     1
 62
    18
420
        0
176
     1
 90
       50
176
     1
 90
        3
176
     1
 62
     5
420
      255
176
     1
290
     0
176
     1
 90
       50
176
     1
 90
       50
176
     1
 90
       50
176
     1
290
     0
176
     1
 90
       50
176
     1
 62
   256
176
     0
 40
1.0
176
     0
 90
        2
176
     1
  1
strokes_ogs.tif
176
     1
290
     0
176
     1
 40
1.0
176
     1
 40
1.0
176
     1
  0
VISUALSTYLE
  5
9B
102
{ACAD_REACTORS
330
99
102
}
330
99
100
AcDbVisualStyle
  2
FlatWithEdges
 70
     1
177
     3
291
     1
 70
    58
 90
        2
176
     1
 90
        1
176
     1
 90
        1
176
     1
 90
        2
176
     1
 40
0.6
176
     1
 40
30.0
176
     1
 62
     7
420
 16777215
176
     1
 90
        1
176
     1
 90
        4
176
     1
 62
     7
176
     1
 62
   257
176
     1
 90
        1
176
     1
 90
        1
176
     1
 40
1.0
176
     1
 90
        0
176
     1
 62
   257
176
     1
 40
1.0
176
     1
 90
        1
176
     1
 90
        6
176
     1
 90
        2
176
     1
 62
     7
176
     1
 90
        5
176
     1
 90
        0
176
     1
 90
        0
176
     1
290
     0
176
     1
 90
        1
176
     1
 40
0.0
176
     1
 90
        0
176
     1
290
     0
176
     1
290
     1
176
     1
290
     1
176
     1
290
     0
176
     1
290
     0
176
     1
290
     0
176
     1
290
     0
176
     1
290
     0
176
     1
290
     0
176
     1
 90
       50
176
     1
 40
0.0
176
     1
 40
1.0
176
     1
 90
        0
176
     1
 62
    18
420
        0
176
     1
 90
       50
176
     1
 90
        3
176
     1
 62
     5
420
      255
176
     1
290
     0
176
     1
 90
       50
176
     1
 90
       50
176
     1
 90
       50
176
     1
290
     0
176
     1
 90
       50
176
     1
 62
   256
176
     0
 40
1.0
176
     0
 90
        2
176
     1
  1
strokes_ogs.tif
176
     1
290
     0
176
     1
 40
1.0
176
     1
 40
1.0
176
     1
  0
VISUALSTYLE
  5
9C
102
{ACAD_REACTORS
330
99
102
}
330
99
100
AcDbVisualStyle
  2
Gouraud
 70
     2
177
     3
291
     1
 70
    58
 90
        2
176
     1
 90
        2
176
     1
 90
        1
176
     1
 90
        2
176
     1
 40
0.6
176
     1
 40
30.0
176
     1
 62
     7
420
 16777215
176
     1
 90
        0
176
     1
 90
        4
176
     1
 62
     7
176
     1
 62
   257
176
     1
 90
        1
176
     1
 90
        1
176
     1
 40
1.0
176
     1
 90
        0
176
     1
 62
     7
176
     1
 40
1.0
176
     1
 90
        1
176
     1
 90
        6
176
     1
 90
        2
176
     1
 62
     7
176
     1
 90
        5
176
     1
 90
        0
176
     1
 90
        0
176
     1
290
     0
176
     1
 90
        1
176
     1
 40
0.0
176
     1
 90
        0
176
     1
290
     0
176
     1
290
     1
176
     1
290
     1
176
     1
290
     0
176
     1
290
     0
176
     1
290
     0
176
     1
290
     0
176
     1
290
     0
176
     1
290
     0
176
     1
 90
       50
176
     1
 40
0.0
176
     1
 40
1.0
176
     1
 90
        0
176
     1
 62
    18
420
        0
176
     1
 90
       50
176
     1
 90
        3
176
     1
 62
     5
420
      255
176
     1
290
     0
176
     1
 90
       50
176
     1
 90
       50
176
     1
 90
       50
176
     1
290
     0
176
     1
 90
       50
176
     1
 62
   256
176
     0
 40
1.0
176
     0
 90
        2
176
     1
  1
strokes_ogs.tif
176
     1
290
     0
176
     1
 40
1.0
176
     1
 40
1.0
176
     1
  0
VISUALSTYLE
  5
9D
102
{ACAD_REACTORS
330
99
102
}
330
99
100
AcDbVisualStyle
  2
GouraudWithEdges
 70
     3
177
     3
291
     1
 70
    58
 90
        2
176
     1
 90
        2
176
     1
 90
        1
176
     1
 90
        2
176
     1
 40
0.6
176
     1
 40
30.0
176
     1
 62
     7
420
 16777215
176
     1
 90
        1
176
     1
 90
        4
176
     1
 62
     7
176
     1
 62
   257
176
     1
 90
        1
176
     1
 90
        1
176
     1
 40
1.0
176
     1
 90
        0
176
     1
 62
   257
176
     1
 40
1.0
176
     1
 90
        1
176
     1
 90
        6
176
     1
 90
        2
176
     1
 62
     7
176
     1
 90
        5
176
     1
 90
        0
176
     1
 90
        0
176
     1
290
     0
176
     1
 90
        1
176
     1
 40
0.0
176
     1
 90
        0
176
     1
290
     0
176
     1
290
     1
176
     1
290
     1
176
     1
290
     0
176
     1
290
     0
176
     1
290
     0
176
     1
290
     0
176
     1
290
     0
176
     1
290
     0
176
     1
 90
       50
176
     1
 40
0.0
176
     1
 40
1.0
176
     1
 90
        0
176
     1
 62
    18
420
        0
176
     1
 90
       50
176
     1
 90
        3
176
     1
 62
     5
420
      255
176
     1
290
     0
176
     1
 90
       50
176
     1
 90
       50
176
     1
 90
       50
176
     1
290
     0
176
     1
 90
       50
176
     1
 62
   256
176
     0
 40
1.0
176
     0
 90
        2
176
     1
  1
strokes_ogs.tif
176
     1
290
     0
176
     1
 40
1.0
176
     1
 40
1.0
176
     1
  0
VISUALSTYLE
  5
5C434
102
{ACAD_REACTORS
330
99
102
}
330
99
100
AcDbVisualStyle
  2
Hidden
 70
     6
177
     3
291
     0
 70
    58
 90
        1
176
     1
 90
        2
176
     1
 90
        2
176
     1
 90
        0
176
     1
 40
0.6
176
     1
 40
30.0
176
     1
 62
     7
420
 16777215
176
     1
 90
        2
176
     1
 90
        2
176
     1
 62
     7
176
     1
 62
   257
176
     1
 90
        2
176
     1
 90
        1
176
     1
 40
40.0
176
     1
 90
        0
176
     1
 62
   257
176
     1
 40
1.0
176
     1
 90
        1
176
     1
 90
        6
176
     1
 90
        2
176
     1
 62
     7
176
     1
 90
        3
176
     1
 90
        0
176
     1
 90
        0
176
     1
290
     0
176
     1
 90
        1
176
     1
 40
0.0
176
     1
 90
        0
176
     1
290
     0
176
     1
290
     1
176
     1
290
     1
176
     1
290
     0
176
     1
290
     0
176
     1
290
     0
176
     1
290
     0
176
     1
290
     0
176
     1
290
     0
176
     1
 90
       50
176
     1
 40
0.0
176
     1
 40
1.0
176
     1
 90
        0
176
     1
 62
    18
420
        0
176
     1
 90
       50
176
     1
 90
        3
176
     1
 62
     5
420
      255
176
     1
290
     0
176
     1
 90
       50
176
     1
 90
       50
176
     1
 90
       50
176
     1
290
     0
176
     1
 90
       50
176
     1
 62
   256
176
     0
 40
1.0
176
     0
 90
        2
176
     1
  1
strokes_ogs.tif
176
     1
290
     0
176
     1
 40
1.0
176
     1
 40
1.0
176
     1
  0
VISUALSTYLE
  5
5C43A
102
{ACAD_REACTORS
330
99
102
}
330
99
100
AcDbVisualStyle
  2
JitterOff
 70
    20
177
     3
291
     1
 70
    58
 90
        2
176
     0
 90
        2
176
     0
 90
        0
176
     0
 90
        0
176
     0
 40
0.6
176
     0
 40
30.0
176
     0
 62
     7
420
 16777215
176
     0
 90
        1
176
     0
 90
        4
176
     0
 62
     7
176
     0
 62
   257
176
     0
 90
        1
176
     0
 90
        1
176
     0
 40
1.0
176
     0
 90
       10
176
     2
 62
     7
176
     0
 40
1.0
176
     0
 90
        1
176
     0
 90
        6
176
     0
 90
        2
176
     0
 62
     7
176
     0
 90
        5
176
     0
 90
        0
176
     0
 90
        0
176
     0
290
     0
176
     0
 90
        1
176
     0
 40
0.0
176
     0
 90
        0
176
     0
290
     0
176
     0
290
     1
176
     0
290
     1
176
     0
290
     0
176
     0
290
     0
176
     0
290
     0
176
     0
290
     0
176
     0
290
     0
176
     0
290
     0
176
     0
 90
       50
176
     0
 40
0.0
176
     0
 40
1.0
176
     0
 90
        0
176
     0
 62
    18
420
        0
176
     0
 90
       50
176
     0
 90
        3
176
     0
 62
     5
420
      255
176
     0
290
     0
176
     0
 90
       50
176
     0
 90
       50
176
     0
 90
       50
176
     0
290
     0
176
     0
 90
       50
176
     0
 62
   256
176
     0
 40
1.0
176
     0
 90
        2
176
     0
  1
strokes_ogs.tif
176
     0
290
     0
176
     0
 40
1.0
176
     0
 40
1.0
176
     0
  0
VISUALSTYLE
  5
A7
102
{ACAD_REACTORS
330
99
102
}
330
99
100
AcDbVisualStyle
  2
Linepattern
 70
    14
177
     3
291
     1
 70
    58
 90
        2
176
     1
 90
        2
176
     1
 90
        1
176
     1
 90
        0
176
     1
 40
0.6
176
     1
 40
30.0
176
     1
 62
     7
420
 16777215
176
     1
 90
        1
176
     1
 90
        4
176
     1
 62
     7
176
     1
 62
   257
176
     1
 90
        7
176
     1
 90
        7
176
     1
 40
1.0
176
     1
 90
        8
176
     1
 62
     7
176
     1
 40
1.0
176
     1
 90
        1
176
     1
 90
        6
176
     1
 90
        2
176
     1
 62
     7
176
     1
 90
        5
176
     1
 90
        0
176
     1
 90
        0
176
     1
290
     0
176
     1
 90
        1
176
     1
 40
0.0
176
     1
 90
        0
176
     1
290
     0
176
     1
290
     1
176
     1
290
     1
176
     1
290
     0
176
     1
290
     0
176
     1
290
     0
176
     1
290
     0
176
     1
290
     0
176
     1
290
     0
176
     1
 90
       50
176
     1
 40
0.0
176
     1
 40
1.0
176
     1
 90
        0
176
     1
 62
    18
420
        0
176
     1
 90
       50
176
     1
 90
        3
176
     1
 62
     5
420
      255
176
     1
290
     0
176
     1
 90
       50
176
     1
 90
       50
176
     1
 90
       50
176
     1
290
     0
176
     1
 90
       50
176
     1
 62
   256
176
     0
 40
1.0
176
     0
 90
        2
176
     1
  1
strokes_ogs.tif
176
     1
290
     0
176
     1
 40
1.0
176
     1
 40
1.0
176
     1
  0
VISUALSTYLE
  5
5C43B
102
{ACAD_REACTORS
330
99
102
}
330
99
100
AcDbVisualStyle
  2
OverhangOff
 70
    21
177
     3
291
     1
 70
    58
 90
        2
176
     0
 90
        2
176
     0
 90
        0
176
     0
 90
        0
176
     0
 40
0.6
176
     0
 40
30.0
176
     0
 62
     7
420
 16777215
176
     0
 90
        1
176
     0
 90
        4
176
     0
 62
     7
176
     0
 62
   257
176
     0
 90
        1
176
     0
 90
        1
176
     0
 40
1.0
176
     0
 90
        9
176
     2
 62
     7
176
     0
 40
1.0
176
     0
 90
        1
176
     0
 90
        6
176
     0
 90
        2
176
     0
 62
     7
176
     0
 90
        5
176
     0
 90
        0
176
     0
 90
        0
176
     0
290
     0
176
     0
 90
        1
176
     0
 40
0.0
176
     0
 90
        0
176
     0
290
     0
176
     0
290
     1
176
     0
290
     1
176
     0
290
     0
176
     0
290
     0
176
     0
290
     0
176
     0
290
     0
176
     0
290
     0
176
     0
290
     0
176
     0
 90
       50
176
     0
 40
0.0
176
     0
 40
1.0
176
     0
 90
        0
176
     0
 62
    18
420
        0
176
     0
 90
       50
176
     0
 90
        3
176
     0
 62
     5
420
      255
176
     0
290
     0
176
     0
 90
       50
176
     0
 90
       50
176
     0
 90
       50
176
     0
290
     0
176
     0
 90
       50
176
     0
 62
   256
176
     0
 40
1.0
176
     0
 90
        2
176
     0
  1
strokes_ogs.tif
176
     0
290
     0
176
     0
 40
1.0
176
     0
 40
1.0
176
     0
  0
VISUALSTYLE
  5
A3
102
{ACAD_REACTORS
330
99
102
}
330
99
100
AcDbVisualStyle
  2
Realistic
 70
     8
177
     3
291
     0
 70
    58
 90
        2
176
     1
 90
        2
176
     1
 90
        1
176
     1
 90
        0
176
     1
 40
0.6
176
     1
 40
30.0
176
     1
 62
     7
420
 16777215
176
     1
 90
        1
176
     1
 90
        0
176
     1
 62
     7
176
     1
 62
   257
176
     1
 90
        1
176
     1
 90
        1
176
     1
 40
1.0
176
     1
 90
        8
176
     1
 62
     8
420
  7895160
176
     1
 40
1.0
176
     1
 90
        1
176
     1
 90
        6
176
     1
 90
        2
176
     1
 62
     7
176
     1
 90
        5
176
     1
 90
        0
176
     1
 90
        0
176
     1
290
     0
176
     1
 90
       13
176
     1
 40
0.0
176
     1
 90
        0
176
     1
290
     0
176
     1
290
     1
176
     1
290
     1
176
     1
290
     0
176
     1
290
     0
176
     1
290
     0
176
     1
290
     0
176
     1
290
     0
176
     1
290
     0
176
     1
 90
       50
176
     1
 40
0.0
176
     1
 40
1.0
176
     1
 90
        0
176
     1
 62
    18
420
        0
176
     1
 90
       50
176
     1
 90
        3
176
     1
 62
     5
420
      255
176
     1
290
     0
176
     1
 90
       50
176
     1
 90
       50
176
     1
 90
       50
176
     1
290
     0
176
     1
 90
       50
176
     1
 62
   256
176
     0
 40
1.0
176
     0
 90
        2
176
     1
  1
strokes_ogs.tif
176
     1
290
     0
176
     1
 40
1.0
176
     1
 40
1.0
176
     1
  0
VISUALSTYLE
  5
5C439
102
{ACAD_REACTORS
330
99
102
}
330
99
100
AcDbVisualStyle
  2
Shaded
 70
    27
177
     3
291
     0
 70
    58
 90
        2
176
     1
 90
        2
176
     1
 90
        1
176
     1
 90
        2
176
     1
 40
0.6
176
     1
 40
30.0
176
     1
 62
     7
420
 16777215
176
     1
 90
        0
176
     1
 90
        4
176
     1
 62
     7
176
     1
 62
   257
176
     1
 90
        1
176
     1
 90
        1
176
     1
 40
1.0
176
     1
 90
        8
176
     1
 62
   257
176
     1
 40
1.0
176
     1
 90
        1
176
     1
 90
        6
176
     1
 90
        2
176
     1
 62
     8
420
  7895160
176
     1
 90
        3
176
     1
 90
        0
176
     1
 90
        0
176
     1
290
     0
176
     1
 90
        5
176
     1
 40
0.0
176
     1
 90
        0
176
     1
290
     0
176
     1
290
     1
176
     1
290
     1
176
     1
290
     0
176
     1
290
     0
176
     1
290
     0
176
     1
290
     0
176
     1
290
     0
176
     1
290
     0
176
     1
 90
       50
176
     1
 40
0.0
176
     1
 40
1.0
176
     1
 90
        0
176
     1
 62
    18
420
        0
176
     1
 90
       50
176
     1
 90
        3
176
     1
 62
     5
420
      255
176
     1
290
     0
176
     1
 90
       50
176
     1
 90
       50
176
     1
 90
       50
176
     1
290
     0
176
     1
 90
       50
176
     1
 62
   256
176
     0
 40
1.0
176
     0
 90
        2
176
     1
  1
strokes_ogs.tif
176
     1
290
     0
176
     1
 40
1.0
176
     1
 40
1.0
176
     1
  0
VISUALSTYLE
  5
5C438
102
{ACAD_REACTORS
330
99
102
}
330
99
100
AcDbVisualStyle
  2
Shaded with edges
 70
    26
177
     3
291
     0
 70
    58
 90
        2
176
     1
 90
        2
176
     1
 90
        1
176
     1
 90
        2
176
     1
 40
0.6
176
     1
 40
30.0
176
     1
 62
     7
420
 16777215
176
     1
 90
        1
176
     1
 90
       10
176
     1
 62
     7
176
     1
 62
   257
176
     1
 90
        2
176
     1
 90
        1
176
     1
 40
1.0
176
     1
 90
        8
176
     1
 62
   257
176
     1
 40
1.0
176
     1
 90
        1
176
     1
 90
        6
176
     1
 90
        2
176
     1
 62
     7
176
     1
 90
        3
176
     1
 90
        0
176
     1
 90
        0
176
     1
290
     0
176
     1
 90
        5
176
     1
 40
0.0
176
     1
 90
        0
176
     1
290
     0
176
     1
290
     1
176
     1
290
     1
176
     1
290
     0
176
     1
290
     0
176
     1
290
     0
176
     1
290
     0
176
     1
290
     0
176
     1
290
     0
176
     1
 90
       50
176
     1
 40
0.0
176
     1
 40
1.0
176
     1
 90
        0
176
     1
 62
    18
420
        0
176
     1
 90
       50
176
     1
 90
        3
176
     1
 62
     5
420
      255
176
     1
290
     0
176
     1
 90
       50
176
     1
 90
       50
176
     1
 90
       50
176
     1
290
     0
176
     1
 90
       50
176
     1
 62
   256
176
     0
 40
1.0
176
     0
 90
        2
176
     1
  1
strokes_ogs.tif
176
     1
290
     0
176
     1
 40
1.0
176
     1
 40
1.0
176
     1
  0
VISUALSTYLE
  5
5C435
102
{ACAD_REACTORS
330
99
102
}
330
99
100
AcDbVisualStyle
  2
Shades of Gray
 70
    23
177
     3
291
     0
 70
    58
 90
        2
176
     1
 90
        2
176
     1
 90
        3
176
     1
 90
        0
176
     1
 40
0.6
176
     1
 40
30.0
176
     1
 62
     7
420
 16777215
176
     1
 90
        2
176
     1
 90
        2
176
     1
 62
     7
176
     1
 62
     7
176
     1
 90
        1
176
     1
 90
        1
176
     1
 40
40.0
176
     1
 90
        8
176
     1
 62
     7
176
     1
 40
1.0
176
     1
 90
        1
176
     1
 90
        6
176
     1
 90
        2
176
     1
 62
     7
176
     1
 90
        3
176
     1
 90
        0
176
     1
 90
        0
176
     1
290
     0
176
     1
 90
        1
176
     1
 40
0.0
176
     1
 90
        0
176
     1
290
     0
176
     1
290
     1
176
     1
290
     1
176
     1
290
     0
176
     1
290
     0
176
     1
290
     0
176
     1
290
     0
176
     1
290
     0
176
     1
290
     0
176
     1
 90
       50
176
     1
 40
0.0
176
     1
 40
1.0
176
     1
 90
        0
176
     1
 62
    18
420
        0
176
     1
 90
       50
176
     1
 90
        3
176
     1
 62
     5
420
      255
176
     1
290
     0
176
     1
 90
       50
176
     1
 90
       50
176
     1
 90
       50
176
     1
290
     0
176
     1
 90
       50
176
     1
 62
   256
176
     0
 40
1.0
176
     0
 90
        2
176
     1
  1
strokes_ogs.tif
176
     1
290
     0
176
     1
 40
1.0
176
     1
 40
1.0
176
     1
  0
VISUALSTYLE
  5
5C436
102
{ACAD_REACTORS
330
99
102
}
330
99
100
AcDbVisualStyle
  2
Sketchy
 70
    24
177
     3
291
     0
 70
    58
 90
        1
176
     1
 90
        2
176
     1
 90
        2
176
     1
 90
        0
176
     1
 40
0.6
176
     1
 40
30.0
176
     1
 62
     7
420
 16777215
176
     1
 90
        2
176
     1
 90
        2
176
     1
 62
     7
176
     1
 62
     7
176
     1
 90
        1
176
     1
 90
        1
176
     1
 40
40.0
176
     1
 90
       11
176
     1
 62
     7
176
     1
 40
1.0
176
     1
 90
        1
176
     1
 90
        6
176
     1
 90
        2
176
     1
 62
     7
176
     1
 90
        6
176
     1
 90
        0
176
     1
 90
        0
176
     1
290
     0
176
     1
 90
        1
176
     1
 40
0.0
176
     1
 90
        0
176
     1
290
     0
176
     1
290
     1
176
     1
290
     1
176
     1
290
     0
176
     1
290
     0
176
     1
290
     0
176
     1
290
     0
176
     1
290
     0
176
     1
290
     0
176
     1
 90
       50
176
     1
 40
0.0
176
     1
 40
1.0
176
     1
 90
        0
176
     1
 62
    18
420
        0
176
     1
 90
       50
176
     1
 90
        3
176
     1
 62
     5
420
      255
176
     1
290
     0
176
     1
 90
       50
176
     1
 90
       50
176
     1
 90
       50
176
     1
290
     0
176
     1
 90
       50
176
     1
 62
   256
176
     0
 40
1.0
176
     0
 90
        2
176
     1
  1
strokes_ogs.tif
176
     1
290
     0
176
     1
 40
1.0
176
     1
 40
1.0
176
     1
  0
VISUALSTYLE
  5
A6
102
{ACAD_REACTORS
330
99
102
}
330
99
100
AcDbVisualStyle
  2
Thicken
 70
    13
177
     3
291
     1
 70
    58
 90
        2
176
     1
 90
        2
176
     1
 90
        1
176
     1
 90
        0
176
     1
 40
0.6
176
     1
 40
30.0
176
     1
 62
     7
420
 16777215
176
     1
 90
        1
176
     1
 90
        4
176
     1
 62
     7
176
     1
 62
   257
176
     1
 90
        1
176
     1
 90
        1
176
     1
 40
1.0
176
     1
 90
       12
176
     1
 62
     7
176
     1
 40
1.0
176
     1
 90
        1
176
     1
 90
        6
176
     1
 90
        2
176
     1
 62
     7
176
     1
 90
        5
176
     1
 90
        0
176
     1
 90
        0
176
     1
290
     0
176
     1
 90
        1
176
     1
 40
0.0
176
     1
 90
        0
176
     1
290
     0
176
     1
290
     1
176
     1
290
     1
176
     1
290
     0
176
     1
290
     0
176
     1
290
     0
176
     1
290
     0
176
     1
290
     0
176
     1
290
     0
176
     1
 90
       50
176
     1
 40
0.0
176
     1
 40
1.0
176
     1
 90
        0
176
     1
 62
    18
420
        0
176
     1
 90
       50
176
     1
 90
        3
176
     1
 62
     5
420
      255
176
     1
290
     0
176
     1
 90
       50
176
     1
 90
       50
176
     1
 90
       50
176
     1
290
     0
176
     1
 90
       50
176
     1
 62
   256
176
     0
 40
1.0
176
     0
 90
        2
176
     1
  1
strokes_ogs.tif
176
     1
290
     0
176
     1
 40
1.0
176
     1
 40
1.0
176
     1
  0
VISUALSTYLE
  5
5C433
102
{ACAD_REACTORS
330
99
102
}
330
99
100
AcDbVisualStyle
  2
Wireframe
 70
     5
177
     3
291
     0
 70
    58
 90
        0
176
     1
 90
        2
176
     1
 90
        0
176
     1
 90
        0
176
     1
 40
0.6
176
     1
 40
30.0
176
     1
 62
     7
420
 16777215
176
     1
 90
        1
176
     1
 90
        4
176
     1
 62
     7
176
     1
 62
   257
176
     1
 90
        1
176
     1
 90
        1
176
     1
 40
1.0
176
     1
 90
        0
176
     1
 62
   257
176
     1
 40
1.0
176
     1
 90
        1
176
     1
 90
        6
176
     1
 90
        2
176
     1
 62
     7
176
     1
 90
        3
176
     1
 90
        0
176
     1
 90
        0
176
     1
290
     0
176
     1
 90
        1
176
     1
 40
0.0
176
     1
 90
        0
176
     1
290
     0
176
     1
290
     1
176
     1
290
     1
176
     1
290
     0
176
     1
290
     0
176
     1
290
     0
176
     1
290
     0
176
     1
290
     0
176
     1
290
     0
176
     1
 90
       50
176
     1
 40
0.0
176
     1
 40
1.0
176
     1
 90
        0
176
     1
 62
    18
420
        0
176
     1
 90
       50
176
     1
 90
        3
176
     1
 62
     5
420
      255
176
     1
290
     0
176
     1
 90
       50
176
     1
 90
       50
176
     1
 90
       50
176
     1
290
     0
176
     1
 90
       50
176
     1
 62
   256
176
     0
 40
1.0
176
     0
 90
        2
176
     1
  1
strokes_ogs.tif
176
     1
290
     0
176
     1
 40
1.0
176
     1
 40
1.0
176
     1
  0
VISUALSTYLE
  5
5C437
102
{ACAD_REACTORS
330
99
102
}
330
99
100
AcDbVisualStyle
  2
X-Ray
 70
    25
177
     3
291
     0
 70
    58
 90
        2
176
     1
 90
        2
176
     1
 90
        1
176
     1
 90
        1
176
     1
 40
0.5
176
     1
 40
30.0
176
     1
 62
     7
420
 16777215
176
     1
 90
        1
176
     1
 90
        0
176
     1
 62
     7
176
     1
 62
   257
176
     1
 90
        1
176
     1
 90
        1
176
     1
 40
1.0
176
     1
 90
        8
176
     1
 62
     7
176
     1
 40
1.0
176
     1
 90
        1
176
     1
 90
        6
176
     1
 90
        2
176
     1
 62
     7
176
     1
 90
        3
176
     1
 90
        0
176
     1
 90
        0
176
     1
290
     0
176
     1
 90
       13
176
     1
 40
0.0
176
     1
 90
        0
176
     1
290
     0
176
     1
290
     1
176
     1
290
     1
176
     1
290
     0
176
     1
290
     0
176
     1
290
     0
176
     1
290
     0
176
     1
290
     0
176
     1
290
     0
176
     1
 90
       50
176
     1
 40
0.0
176
     1
 40
1.0
176
     1
 90
        0
176
     1
 62
    18
420
        0
176
     1
 90
       50
176
     1
 90
        3
176
     1
 62
     5
420
      255
176
     1
290
     0
176
     1
 90
       50
176
     1
 90
       50
176
     1
 90
       50
176
     1
290
     0
176
     1
 90
       50
176
     1
 62
   256
176
     0
 40
1.0
176
     0
 90
        2
176
     1
  1
strokes_ogs.tif
176
     1
290
     0
176
     1
 40
1.0
176
     1
 40
1.0
176
     1
  0
DICTIONARY
  5
5C6BF
102
{ACAD_REACTORS
330
5C6BE
102
}
330
5C6BE
100
AcDbDictionary
280
     1
281
     1
  3
DefaultStandard
360
9C879
  3
Standards
360
5C6C0
  0
DICTIONARYVAR
  5
B5D
102
{ACAD_REACTORS
330
66
102
}
330
66
100
DictionaryVariables
280
     0
  1
1:1
  0
DICTIONARYVAR
  5
B5C
102
{ACAD_REACTORS
330
66
102
}
330
66
100
DictionaryVariables
280
     0
  1
STANDARD
  0
DICTIONARYVAR
  5
89
102
{ACAD_REACTORS
330
66
102
}
330
66
100
DictionaryVariables
280
     0
  1
STANDARD
  0
DICTIONARYVAR
  5
66F55
102
{ACAD_REACTORS
330
66
102
}
330
66
100
DictionaryVariables
280
     0
  1
Imperial24
  0
DICTIONARYVAR
  5
66F56
102
{ACAD_REACTORS
330
66
102
}
330
66
100
DictionaryVariables
280
     0
  1
Imperial24
  0
DICTIONARYVAR
  5
67
102
{ACAD_REACTORS
330
66
102
}
330
66
100
DictionaryVariables
280
     0
  1
2
  0
DICTIONARYVAR
  5
6B
102
{ACAD_REACTORS
330
66
102
}
330
66
100
DictionaryVariables
280
     0
  1
1
  0
DICTIONARYVAR
  5
9D9A7
102
{ACAD_REACTORS
330
66
102
}
330
66
100
DictionaryVariables
280
     0
  1
BYLAYER
  0
DICTIONARYVAR
  5
9D9A6
102
{ACAD_REACTORS
330
66
102
}
330
66
100
DictionaryVariables
280
     0
  1
ByLayer
  0
DICTIONARYVAR
  5
25751
102
{ACAD_REACTORS
330
66
102
}
330
66
100
DictionaryVariables
280
     0
  1
1
  0
DICTIONARYVAR
  5
25752
102
{ACAD_REACTORS
330
66
102
}
330
66
100
DictionaryVariables
280
     0
  1
15
  0
DICTIONARYVAR
  5
F79
102
{ACAD_REACTORS
330
66
102
}
330
66
100
DictionaryVariables
280
     0
  1
0
  0
DICTIONARYVAR
  5
F78
102
{ACAD_REACTORS
330
66
102
}
330
66
100
DictionaryVariables
280
     0
  1
0
  0
DICTIONARY
  5
A21DF
330
5C440
100
AcDbDictionary
280
     1
281
     1
  3
ACAD_XREC_ROUNDTRIP
360
AC75A
  0
DICTIONARY
  5
66EB6
330
22
100
AcDbDictionary
280
     1
281
     1
  0
XRECORD
  5
A15E7
102
{ACAD_REACTORS
330
A15E6
102
}
330
A15E6
100
AcDbXrecord
280
     1
 70
     2
 71
     3
 72
     0
  0
DICTIONARY
  5
A21DD
330
5C43E
100
AcDbDictionary
280
     1
281
     1
  3
ACAD_XREC_ROUNDTRIP
360
AC759
  0
DICTIONARY
  5
B4E
330
87
100
AcDbDictionary
280
     1
281
     1
  3
ACAD_ROUNDTRIP_2008_TABLESTYLE_CELLSTYLEMAP
360
AC758
  0
XRECORD
  5
9C879
102
{ACAD_REACTORS
330
5C6BF
102
}
330
5C6BF
100
AcDbXrecord
280
     1
1000
AIA Version 3
  0
BINRECORD
  5
5C6C0
102
{ACAD_REACTORS
330
5C6BF
102
}
330
5C6BF
100
AcAecBinRecord
 90
        0
 91
    19403
 70
     0
310
0100FFFEFF0D4100490041002000560065007200730069006F006E00200033000500FFFF01001C004163416563556B4C6179657244657363726970746976654669656C64FFFEFF154400690073006300690070006C0069006E0065002000440065007300690067006E00610074006F0072000102000000007B333637354541
310
46100100002100000070BA406CD0EA76040B00FFFEFF001500FFFEFF01520002000000FFFEFF085200650073006F0075007200630065000700FFFEFF01410002000000FFFEFF165200650073006F00750072006300650020004100720063006800690074006500630074007500720061006C00000000000000FFFEFF014D00
310
02000000FFFEFF135200650073006F00750072006300650020004D0065006300680061006E006900630061006C00000000000000FFFEFF014B0002000000FFFEFF175200650073006F007500720063006500200028005500730065007200200044006500660069006E00650064002900000000000000FFFEFF014A00020000
310
00FFFEFF175200650073006F007500720063006500200028005500730065007200200044006500660069006E00650064002900000000000000FFFEFF01450002000000FFFEFF135200650073006F007500720063006500200045006C0065006300740072006900630061006C00000000000000FFFEFF01430002000000FFFE
310
FF0E5200650073006F007500720063006500200043006900760069006C00000000000000FFFEFF01530002000000FFFEFF135200650073006F00750072006300650020005300740072007500630074007500720061006C0000000000000000000000FFFEFF01410002000000FFFEFF0D410072006300680069007400650063
310
0074007500720061006C000A00FFFEFF01500002000000FFFEFF144100720063006800690074006500630074007500720061006C00200050006100760069006E006700000000000000FFFEFF014B0002000000FFFEFF1C4100720063006800690074006500630074007500720061006C002000280055007300650072002000
310
44006500660069006E00650064002900000000000000FFFEFF014A0002000000FFFEFF1C4100720063006800690074006500630074007500720061006C00200028005500730065007200200044006500660069006E00650064002900000000000000FFFEFF01490002000000FFFEFF16410072006300680069007400650063
310
0074007500720061006C00200049006E0074006500720069006F007200000000000000FFFEFF01470002000000FFFEFF164100720063006800690074006500630074007500720061006C00200047007200610070006800690063007300000000000000FFFEFF01460002000000FFFEFF164100720063006800690074006500
310
630074007500720061006C002000460069006E0069007300680065007300000000000000FFFEFF01450002000000FFFEFF164100720063006800690074006500630074007500720061006C00200045006C0065006D0065006E0074007300000000000000FFFEFF01440002000000FFFEFF1841007200630068006900740065
310
00630074007500720061006C002000440065006D006F006C006900740069006F006E00000000000000FFFEFF01540002000000FFFEFF1C4100720063006800690074006500630074007500720061006C0020005400720061006E00730070006F00720074006100740069006F006E00000000000000FFFEFF01530002000000
310
FFFEFF124100720063006800690074006500630074007500720061006C002000530069007400650000000000000001000000FFFEFF01510002000000FFFEFF09450071007500690070006D0065006E0074001100FFFEFF01410002000000FFFEFF124100740068006C0065007400690063002000450071007500690070006D
310
0065006E007400000000000000FFFEFF01520002000000FFFEFF10520065007400610069006C002000450071007500690070006D0065006E007400000000000000FFFEFF01500002000000FFFEFF155000610072006B0069006E00670020004C006F0074002000450071007500690070006D0065006E007400000000000000
310
FFFEFF014D0002000000FFFEFF154D00610069006E00740065006E0061006E00630065002000450071007500690070006D0065006E007400000000000000FFFEFF014C0002000000FFFEFF144C00610062006F007200610074006F00720079002000450071007500690070006D0065006E007400000000000000FFFEFF014B
310
0002000000FFFEFF18450071007500690070006D0065006E007400200028005500730065007200200044006500660069006E00650064002900000000000000FFFEFF014A0002000000FFFEFF18450071007500690070006D0065006E007400200028005500730065007200200044006500660069006E006500640029000000
310
00000000FFFEFF01480002000000FFFEFF1248006F00730070006900740061006C002000450071007500690070006D0065006E007400000000000000FFFEFF01590002000000FFFEFF12530065006300750072006900740079002000450071007500690070006D0065006E007400000000000000FFFEFF01460002000000FF
310
FEFF1646006F006F006400200053006500720076006900630065002000450071007500690070006D0065006E007400000000000000FFFEFF01450002000000FFFEFF1545006400750063006100740069006F006E0061006C002000450071007500690070006D0065006E007400000000000000FFFEFF01560002000000FFFE
310
FF1C56006900640065006F002F00500068006F0074006F0067007200610070006800690063002000450071007500690070006D0065006E007400000000000000FFFEFF01440002000000FFFEFF1344006500740065006E00740069006F006E002000450071007500690070006D0065006E007400000000000000FFFEFF0143
310
0002000000FFFEFF16440072007900200043006C00650061006E0069006E0067002000450071007500690070006D0065006E007400000000000000FFFEFF01540002000000FFFEFF145400680065006100740072006900630061006C002000450071007500690070006D0065006E007400000000000000FFFEFF0142000200
310
0000FFFEFF0E420061006E006B002000450071007500690070006D0065006E007400000000000000FFFEFF01530002000000FFFEFF0E53006900740065002000450071007500690070006D0065006E00740000000000000000000000FFFEFF01500002000000FFFEFF0850006C0075006D00620069006E0067000600FFFEFF
310
01510002000000FFFEFF1250006C0075006D00620069006E0067002000450071007500690070006D0065006E007400000000000000FFFEFF01500002000000FFFEFF0F50006C0075006D00620069006E006700200050006900700069006E006700000000000000FFFEFF014B0002000000FFFEFF1750006C0075006D006200
310
69006E006700200028005500730065007200200044006500660069006E00650064002900000000000000FFFEFF014A0002000000FFFEFF1750006C0075006D00620069006E006700200028005500730065007200200044006500660069006E00650064002900000000000000FFFEFF01440002000000FFFEFF1350006C0075
310
006D00620069006E0067002000440065006D006F006C006900740069006F006E00000000000000FFFEFF01530002000000FFFEFF0D50006C0075006D00620069006E0067002000530069007400650000000000000000000000FFFEFF014F0002000000FFFEFF0A4F007000650072006100740069006F006E0073000200FFFE
310
FF014B0002000000FFFEFF194F007000650072006100740069006F006E007300200028005500730065007200200044006500660069006E00650064002900000000000000FFFEFF014A0002000000FFFEFF194F007000650072006100740069006F006E007300200028005500730065007200200044006500660069006E0065
310
006400290000000000000000000000FFFEFF014D0002000000FFFEFF0A4D0065006300680061006E006900630061006C000700FFFEFF01500002000000FFFEFF114D0065006300680061006E006900630061006C00200050006900700069006E006700000000000000FFFEFF014B0002000000FFFEFF194D00650063006800
310
61006E006900630061006C00200028005500730065007200200044006500660069006E00650064002900000000000000FFFEFF014A0002000000FFFEFF194D0065006300680061006E006900630061006C00200028005500730065007200200044006500660069006E00650064002900000000000000FFFEFF014900020000
310
00FFFEFF1A4D0065006300680061006E006900630061006C00200049006E0073007400720075006D0065006E0074006100740069006F006E00000000000000FFFEFF01480002000000FFFEFF0F4D0065006300680061006E006900630061006C0020004800560041004300000000000000FFFEFF01440002000000FFFEFF15
310
4D0065006300680061006E006900630061006C002000440065006D006F006C006900740069006F006E00000000000000FFFEFF01530002000000FFFEFF0F4D0065006300680061006E006900630061006C002000530069007400650000000000000000000000FFFEFF014C0002000000FFFEFF094C0061006E006400730063
310
006100700065000500FFFEFF01500002000000FFFEFF124C0061006E00640073006300610070006500200050006C0061006E00740069006E006700000000000000FFFEFF014B0002000000FFFEFF184C0061006E00640073006300610070006500200028005500730065007200200044006500660069006E00650064002900
310
000000000000FFFEFF014A0002000000FFFEFF184C0061006E00640073006300610070006500200028005500730065007200200044006500660069006E00650064002900000000000000FFFEFF01490002000000FFFEFF144C0061006E006400730063006100700065002000490072007200690067006100740069006F006E
310
00000000000000FFFEFF01440002000000FFFEFF144C0061006E006400730063006100700065002000440065006D006F006C006900740069006F006E0000000000000000000000FFFEFF015A0002000000FFFEFF1A43006F006E00740072006100630074006F00720020002F002000530068006F0070002000440072006100
310
770069006E00670073000200FFFEFF014B0002000000FFFEFF2943006F006E00740072006100630074006F00720020002F002000530068006F0070002000440072006100770069006E0067007300200028005500730065007200200044006500660069006E00650064002900000000000000FFFEFF014A0002000000FFFEFF
310
2943006F006E00740072006100630074006F00720020002F002000530068006F0070002000440072006100770069006E0067007300200028005500730065007200200044006500660069006E0065006400290000000000000000000000FFFEFF01490002000000FFFEFF0949006E0074006500720069006F00720073000600
310
FFFEFF014E0002000000FFFEFF0F49006E0074006500720069006F0072002000440065007300690067006E00000000000000FFFEFF014B0002000000FFFEFF1849006E0074006500720069006F0072007300200028005500730065007200200044006500660069006E00650064002900000000000000FFFEFF014A00020000
310
00FFFEFF1849006E0074006500720069006F0072007300200028005500730065007200200044006500660069006E00650064002900000000000000FFFEFF01470002000000FFFEFF1249006E0074006500720069006F0072007300200047007200610070006800690063007300000000000000FFFEFF01460002000000FFFE
310
FF1149006E0074006500720069006F0072002000460069006E0069007300680065007300000000000000FFFEFF01440002000000FFFEFF1349006E0074006500720069006F0072002000440065006D006F006C006900740069006F006E0000000000000000000000FFFEFF01480002000000FFFEFF13480061007A00610072
310
0064006F007500730020004D006100740065007200690061006C0073000700FFFEFF01410002000000FFFEFF084100730062006500730074006F007300000000000000FFFEFF01520002000000FFFEFF0C5200650066007200690067006500720061006E0074007300000000000000FFFEFF01500002000000FFFEFF035000
310
43004200000000000000FFFEFF014C0002000000FFFEFF044C00650061006400000000000000FFFEFF014B0002000000FFFEFF22480061007A006100720064006F007500730020004D006100740065007200690061006C007300200028005500730065007200200044006500660069006E00650064002900000000000000FF
310
FEFF014A0002000000FFFEFF22480061007A006100720064006F007500730020004D006100740065007200690061006C007300200028005500730065007200200044006500660069006E00650064002900000000000000FFFEFF01430002000000FFFEFF094300680065006D006900630061006C0073000000000000000000
310
0000FFFEFF01580002000000FFFEFF114F00740068006500720020004400690073006300690070006C0069006E00650073000200FFFEFF014B0002000000FFFEFF204F00740068006500720020004400690073006300690070006C0069006E0065007300200028005500730065007200200044006500660069006E00650064
310
002900000000000000FFFEFF014A0002000000FFFEFF204F00740068006500720020004400690073006300690070006C0069006E0065007300200028005500730065007200200044006500660069006E0065006400290000000000000000000000FFFEFF01470002000000FFFEFF07470065006E006500720061006C000500
310
FFFEFF01520002000000FFFEFF10470065006E006500720061006C0020005200650073006F007500720063006500000000000000FFFEFF014B0002000000FFFEFF16470065006E006500720061006C00200028005500730065007200200044006500660069006E00650064002900000000000000FFFEFF014A0002000000FF
310
FEFF16470065006E006500720061006C00200028005500730065007200200044006500660069006E00650064002900000000000000FFFEFF01490002000000FFFEFF13470065006E006500720061006C00200049006E0066006F0072006D006100740069006F006E00000000000000FFFEFF01430002000000FFFEFF134700
310
65006E006500720061006C00200043006F006E0074007200610063007400750061006C0000000000000000000000FFFEFF01460002000000FFFEFF0F46006900720065002000500072006F00740065006300740069006F006E000400FFFEFF01410002000000FFFEFF18460069007200650020004400650074006500630074
310
0069006F006E00200061006E006400200041006C00610072006D00000000000000FFFEFF014B0002000000FFFEFF134600690072006500200028005500730065007200200044006500660069006E00650064002900000000000000FFFEFF014A0002000000FFFEFF1346006900720065002000280055007300650072002000
310
44006500660069006E00650064002900000000000000FFFEFF01530002000000FFFEFF10460069007200650020005300750070007000720065007300730069006F006E0000000000000000000000FFFEFF01570002000000FFFEFF0B43006900760069006C00200057006F0072006B0073000200FFFEFF014B0002000000FF
310
FEFF1A43006900760069006C00200057006F0072006B007300200028005500730065007200200044006500660069006E00650064002900000000000000FFFEFF014A0002000000FFFEFF1A43006900760069006C00200057006F0072006B007300200028005500730065007200200044006500660069006E00650064002900
310
00000000000000000000FFFEFF01450002000000FFFEFF0A45006C0065006300740072006900630061006C000900FFFEFF01500002000000FFFEFF1045006C0065006300740072006900630061006C00200050006F00770065007200000000000000FFFEFF014C0002000000FFFEFF1345006C006500630074007200690063
310
0061006C0020004C00690067006800740069006E006700000000000000FFFEFF014B0002000000FFFEFF1945006C0065006300740072006900630061006C00200028005500730065007200200044006500660069006E00650064002900000000000000FFFEFF014A0002000000FFFEFF1945006C0065006300740072006900
310
630061006C00200028005500730065007200200044006500660069006E00650064002900000000000000FFFEFF01490002000000FFFEFF1A45006C0065006300740072006900630061006C00200049006E0073007400720075006D0065006E0074006100740069006F006E00000000000000FFFEFF01590002000000FFFEFF
310
1C45006C0065006300740072006900630061006C00200041007500780069006C0069006100720079002000530079007300740065006D007300000000000000FFFEFF01440002000000FFFEFF1545006C0065006300740072006900630061006C002000440065006D006F006C006900740069006F006E00000000000000FFFE
310
FF01540002000000FFFEFF1D45006C0065006300740072006900630061006C002000540065006C00650063006F006D006D0075006E00690063006100740069006F006E007300000000000000FFFEFF01530002000000FFFEFF0F45006C0065006300740072006900630061006C002000530069007400650000000000000000
310
000000FFFEFF01560002000000FFFEFF1053007500720076006500790020002F0020004D0061007000700069006E0067000500FFFEFF01410002000000FFFEFF0D410065007200690061006C002000530075007200760065007900000000000000FFFEFF014B0002000000FFFEFF1F53007500720076006500790020002F00
310
20004D0061007000700069006E006700200028005500730065007200200044006500660069006E00650064002900000000000000FFFEFF014A0002000000FFFEFF1F53007500720076006500790020002F0020004D0061007000700069006E006700200028005500730065007200200044006500660069006E006500640029
310
00000000000000FFFEFF01490002000000FFFEFF0E4400690067006900740061006C002000530075007200760065007900000000000000FFFEFF01460002000000FFFEFF0C4600690065006C006400200053007500720076006500790000000000000000000000FFFEFF01440002000000FFFEFF07500072006F0063006500
310
730073000E00FFFEFF01410002000000FFFEFF0C500072006F00630065007300730020004100690072007300000000000000FFFEFF01520002000000FFFEFF19500072006F006300650073007300200044007200610069006E0073002000260020005200650063006C00610069006D007300000000000000FFFEFF01510002
310
000000FFFEFF11500072006F0063006500730073002000450071007500690070006D0065006E007400000000000000FFFEFF01500002000000FFFEFF0E500072006F006300650073007300200050006900700069006E006700000000000000FFFEFF014F0002000000FFFEFF0B500072006F00630065007300730020004F00
310
69006C00000000000000FFFEFF01470002000000FFFEFF0D500072006F006300650073007300200047006100730065007300000000000000FFFEFF01580002000000FFFEFF0F500072006F00630065007300730020004500780068006100750073007400000000000000FFFEFF01570002000000FFFEFF0E500072006F0063
310
006500730073002000570061007400650072007300000000000000FFFEFF01450002000000FFFEFF12500072006F006300650073007300200045006C0065006300740072006900630061006C00000000000000FFFEFF01560002000000FFFEFF0E500072006F0063006500730073002000560061006300750075006D000000
310
00000000FFFEFF01440002000000FFFEFF12500072006F0063006500730073002000440065006D006F006C006900740069006F006E00000000000000FFFEFF01430002000000FFFEFF11500072006F00630065007300730020004300680065006D006900630061006C007300000000000000FFFEFF01540002000000FFFEFF
310
18500072006F006300650073007300200045006E0074007200610069006E0065006400200053006F006C00690064007300000000000000FFFEFF01530002000000FFFEFF0C500072006F0063006500730073002000530069007400650000000000000000000000FFFEFF01540002000000FFFEFF12540065006C0065006300
310
6F006D006D0075006E00690063006100740069006F006E0073000900FFFEFF01410002000000FFFEFF0E41007500640069006F0020002F002000560069007300750061006C00000000000000FFFEFF014E0002000000FFFEFF0D440061007400610020004E006500740077006F0072006B007300000000000000FFFEFF014D
310
0002000000FFFEFF0A4D006F006E00690074006F00720069006E006700000000000000FFFEFF014B0002000000FFFEFF21540065006C00650063006F006D006D0075006E00690063006100740069006F006E007300200028005500730065007200200044006500660069006E00650064002900000000000000FFFEFF014A00
310
02000000FFFEFF21540065006C00650063006F006D006D0075006E00690063006100740069006F006E007300200028005500730065007200200044006500660069006E00650064002900000000000000FFFEFF01490002000000FFFEFF0849006E0074006500720063006F006D00000000000000FFFEFF01590002000000FF
310
FEFF0853006500630075007200690074007900000000000000FFFEFF01430002000000FFFEFF1143006C006F0063006B00200061006E0064002000500072006F006700720061006D00000000000000FFFEFF01540002000000FFFEFF09540065006C006500700068006F006E00650000000000000000000000FFFEFF014300
310
02000000FFFEFF0543006900760069006C000900FFFEFF01500002000000FFFEFF0C43006900760069006C00200050006100760069006E006700000000000000FFFEFF014B0002000000FFFEFF1443006900760069006C00200028005500730065007200200044006500660069006E00650064002900000000000000FFFEFF
310
014A0002000000FFFEFF1443006900760069006C00200028005500730065007200200044006500660069006E00650064002900000000000000FFFEFF01490002000000FFFEFF1243006900760069006C00200049006D00700072006F00760065006D0065006E0074007300000000000000FFFEFF01470002000000FFFEFF0D
310
43006900760069006C002000470072006100640069006E006700000000000000FFFEFF01550002000000FFFEFF0F43006900760069006C0020005500740069006C0069007400690065007300000000000000FFFEFF01440002000000FFFEFF1043006900760069006C002000440065006D006F006C006900740069006F006E
310
00000000000000FFFEFF01540002000000FFFEFF1443006900760069006C0020005400720061006E00730070006F00720074006100740069006F006E00000000000000FFFEFF01530002000000FFFEFF0A43006900760069006C002000530069007400650000000000000000000000FFFEFF01530002000000FFFEFF0A5300
310
740072007500630074007500720061006C000600FFFEFF014B0002000000FFFEFF195300740072007500630074007500720061006C00200028005500730065007200200044006500660069006E00650064002900000000000000FFFEFF014A0002000000FFFEFF195300740072007500630074007500720061006C00200028
310
005500730065007200200044006500660069006E00650064002900000000000000FFFEFF01460002000000FFFEFF125300740072007500630074007500720061006C0020004600720061006D0069006E006700000000000000FFFEFF01440002000000FFFEFF155300740072007500630074007500720061006C0020004400
310
65006D006F006C006900740069006F006E00000000000000FFFEFF01420002000000FFFEFF175300740072007500630074007500720061006C002000530075006200730074007200750063007400750072006500000000000000FFFEFF01530002000000FFFEFF0F5300740072007500630074007500720061006C00200053
310
0069007400650000000000000000000000FFFEFF01420002000000FFFEFF0C470065006F0074006500630068006E006900630061006C000200FFFEFF014B0002000000FFFEFF1B470065006F0074006500630068006E006900630061006C00200028005500730065007200200044006500660069006E006500640029000000
310
00000000FFFEFF014A0002000000FFFEFF1B470065006F0074006500630068006E006900630061006C00200028005500730065007200200044006500660069006E00650064002900000000000000000000000180FFFEFF054D0061006A006F0072000300000000000000000000000000000000000000000000000000000000
310
000000FFFEFF002300FFFEFF052D004400650074006C0002000000FFFEFF06440065007400610069006C00000000000000FFFEFF052D0043006C006E00670002000000FFFEFF074300650069006C0069006E006700000000000000FFFEFF052D0052006F006F00660002000000FFFEFF0452006F006F006600000000000000
310
FFFEFF052D00470072006900640002000000FFFEFF0A470072006900640020006C0069006E0065007300000000000000FFFEFF052D00460069007200650002000000FFFEFF1446006900720065002000700072006F00740065006300740069006F006E00200070006C0061006E00000000000000FFFEFF052D00500072006F
310
00740002000000FFFEFF1646006900720065002000700072006F00740065006300740069006F006E002000730079007300740065006D00000000000000FFFEFF052D0043006F006C00730002000000FFFEFF0743006F006C0075006D006E007300000000000000FFFEFF052D004300740072006C0002000000FFFEFF0E4300
310
6F006E00740072006F006C00200050006F0069006E0074007300000000000000FFFEFF052D004500710070006D0002000000FFFEFF09450071007500690070006D0065006E007400000000000000FFFEFF052D00570061006C006C0002000000FFFEFF05570061006C006C007300000000000000FFFEFF052D00500072006F
310
00700002000000FFFEFF08500072006F0070006500720074007900000000000000FFFEFF052D00530065006300740002000000FFFEFF07530065006300740069006F006E00000000000000FFFEFF052D0050006F006C00790002000000FFFEFF0850006F006C00790067006F006E007300000000000000FFFEFF052D004C00
310
69007400650002000000FFFEFF114C00690067006800740069006E006700200066006900780074007500720065007300000000000000FFFEFF052D00410063006300730002000000FFFEFF0B410063006300650073007300200070006C0061006E00000000000000FFFEFF052D00480056004100430002000000FFFEFF0448
310
00560041004300000000000000FFFEFF052D0045006C006500630002000000FFFEFF0A45006C0065006300740072006900630061006C00000000000000FFFEFF052D0054006F0070006F0002000000FFFEFF0A54006F0070006F00670072006100700068007900000000000000FFFEFF052D0043006F006400650002000000
310
FFFEFF1443006F0064006500200063006F006D0070006C00690061006E0063006500200070006C0061006E00000000000000FFFEFF052D0047006C0061007A0002000000FFFEFF0747006C0061007A0069006E006700000000000000FFFEFF052D00540069006E006E0002000000FFFEFF1E54007200690061006E00670075
310
006C00610074006500640020006900720072006500670075006C006100720020006E006500740077006F0072006B00000000000000FFFEFF052D0050006C0061006E0002000000FFFEFF154B0065007900200070006C0061006E002000280066006C006F006F007200200070006C0061006E002900000000000000FFFEFF05
310
2D0046006C006F00720002000000FFFEFF0546006C006F006F007200000000000000FFFEFF052D004600750072006E0002000000FFFEFF0B4600750072006E0069007300680069006E0067007300000000000000FFFEFF052D004200650061006D0002000000FFFEFF054200650061006D007300000000000000FFFEFF052D
310
0044006F006F00720002000000FFFEFF0544006F006F0072007300000000000000FFFEFF052D0041006E006E006F0002000000FFFEFF0A41006E006E006F0074006100740069006F006E00000000000000FFFEFF052D00450076006100630002000000FFFEFF0F450076006100630075006100740069006F006E0020007000
310
6C0061006E00000000000000FFFEFF052D00530069007400650002000000FFFEFF095300690074006500200070006C0061006E00000000000000FFFEFF052D0043006F006E00760002000000FFFEFF1143006F006E0076006500790069006E0067002000730079007300740065006D007300000000000000FFFEFF052D0053
310
006C006100620002000000FFFEFF0553006C00610062007300000000000000FFFEFF052D0043006F006D006D0002000000FFFEFF12540065006C00650063006F006D006D0075006E00690063006100740069006F006E007300000000000000FFFEFF052D005300740072006D0002000000FFFEFF0844007200610069006E00
310
610067006500000000000000FFFEFF052D00410072006500610002000000FFFEFF044100720065006100000000000000FFFEFF052D0045006C006500760002000000FFFEFF0945006C00650076006100740069006F006E000000000000000180FFFEFF074D0069006E006F00720020003100040000000000000000F00E7704
310
00000000000000000000000000000000F00000FFFEFF006A00FFFEFF052D004F00700065006E0002000000FFFEFF084F00700065006E0069006E0067007300000000000000FFFEFF052D005300690067006E0002000000FFFEFF055300690067006E007300000000000000FFFEFF052D0043006C006E00670002000000FFFE
310
FF074300650069006C0069006E006700000000000000FFFEFF052D00570069006400650002000000FFFEFF19570069006400650020007700650069006700680074002000670072006100700068006900630020006C0069006E0065007300000000000000FFFEFF052D00530044004600460002000000FFFEFF105300750070
310
0070006C0079002000640069006600660075007300650072007300000000000000FFFEFF052D004D0063007500740002000000FFFEFF164D00610069006E00200063007500740020006C0069006E006500200065006C0065006D0065006E0074007300000000000000FFFEFF052D00470072006900640002000000FFFEFF04
310
4700720069006400000000000000FFFEFF052D00460069007200650002000000FFFEFF0A46006900720065002000770061006C006C007300000000000000FFFEFF052D00410062006F00760002000000FFFEFF0E45006C0065006D0065006E00740073002000610062006F0076006500000000000000FFFEFF052D00500072
310
006F00660002000000FFFEFF08500072006F00660069006C0065007300000000000000FFFEFF052D00530079006D00620002000000FFFEFF07530079006D0062006F006C007300000000000000FFFEFF052D00480065007600790002000000FFFEFF1A48006500610076007900200077006500690067006800740020006700
310
72006100700068006900630020006C0069006E0065007300000000000000FFFEFF052D00430061007600690002000000FFFEFF06430061007600690074007900000000000000FFFEFF052D005500740069006C0002000000FFFEFF095500740069006C0069007400690065007300000000000000FFFEFF052D004E006F0074
310
00650002000000FFFEFF054E006F00740065007300000000000000FFFEFF052D00530065006100740002000000FFFEFF07530065006100740069006E006700000000000000FFFEFF052D00460072006500650002000000FFFEFF0C46007200650065007300740061006E00640069006E006700000000000000FFFEFF052D00
310
460061007300630002000000FFFEFF074600610073006300690061007300000000000000FFFEFF052D00500072006800740002000000FFFEFF0E5000610072007400690061006C002000680065006900670068007400000000000000FFFEFF052D004D00610072006B0002000000FFFEFF1D4D00610072006B006500720073
310
002C00200062007200650061006B0020006D00610072006B0073002C0020006C00650061006400650072007300000000000000FFFEFF052D00530070006300650002000000FFFEFF0553007000610063006500000000000000FFFEFF052D004900640065006E0002000000FFFEFF134900640065006E007400690066006900
310
63006100740069006F006E0020005400610067007300000000000000FFFEFF052D0057006B007300660002000000FFFEFF1E530079007300740065006D00200077006F0072006B0020007300750072006600610063006500200063006F006D0070006F006E0065006E0074007300000000000000FFFEFF052D005200610069
310
00730002000000FFFEFF06520061006900730065006400000000000000FFFEFF052D004A0061006D00620002000000FFFEFF1544006F006F007200200061006E0064002000770069006E0064006F00770020006A0061006D0062007300000000000000FFFEFF052D00450076007400720002000000FFFEFF1B45006C006500
310
7600610074006F00720020006300610072007300200061006E0064002000650071007500690070006D0065006E007400000000000000FFFEFF052D00540065007800740002000000FFFEFF045400650078007400000000000000FFFEFF052D004500710070006D0002000000FFFEFF09450071007500690070006D0065006E
310
007400000000000000FFFEFF052D00570061006C006C0002000000FFFEFF05570061006C006C007300000000000000FFFEFF052D00460069006C00650002000000FFFEFF0D460069006C006500200063006100620069006E00650074007300000000000000FFFEFF052D004100730073006D0002000000FFFEFF0A41007300
310
730065006D0062006C00690065007300000000000000FFFEFF052D0046006E007300680002000000FFFEFF08460069006E0069007300680065007300000000000000FFFEFF052D004D00610073006B0002000000FFFEFF1241004400540020004D00610073006B0069006E00670020004F0062006A00650063007400000000
310
000000FFFEFF052D005400690074006C0002000000FFFEFF18440072006100770069006E00670020006F0072002000640065007400610069006C0020007400690074006C0065007300000000000000FFFEFF052D004C0069007400650002000000FFFEFF084C00690067006800740069006E006700000000000000FFFEFF05
310
2D00410063006300730002000000FFFEFF06410063006300650073007300000000000000FFFEFF052D004C00610062006C0002000000FFFEFF064C006100620065006C007300000000000000FFFEFF052D00520065006600720002000000FFFEFF195200650066006500720065006E00630065002C00200065007800740065
310
0072006E0061006C002000660069006C0065007300000000000000FFFEFF052D004D00650064006D0002000000FFFEFF1B4D0065006400690075006D0020007700650069006700680074002000670072006100700068006900630020006C0069006E0065007300000000000000FFFEFF052D00530074007200730002000000
310
FFFEFF215300740061006900720020007400720065006100640073002C00200065007300630061006C00610074006F00720073002C0020006C00610064006400650072007300000000000000FFFEFF052D00430075007200740002000000FFFEFF0C4300750072007400610069006E002000570061006C006C000000000000
310
00FFFEFF052D00440065006D006F0002000000FFFEFF0A440065006D006F006C006900740069006F006E00000000000000FFFEFF052D00560069006500770002000000FFFEFF13560069006500770070006F0072007400200044006500660069006E006900740069006F006E00000000000000FFFEFF052D00440069006D00
310
730002000000FFFEFF0A440069006D0065006E00730069006F006E007300000000000000FFFEFF052D0053006C006300650002000000FFFEFF0653006C006900630065007300000000000000FFFEFF052D0043006F006E006E0002000000FFFEFF0B43006F006E006E0065006300740069006F006E007300000000000000FF
310
FEFF052D0042006C006F00770002000000FFFEFF0E45006C0065006D0065006E00740073002000620065006C006F007700000000000000FFFEFF052D00460069006E00650002000000FFFEFF19460069006E00650020007700650069006700680074002000670072006100700068006900630020006C0069006E0065007300
310
000000000000FFFEFF052D00530075007300700002000000FFFEFF12530075007300700065006E00640065006400200065006C0065006D0065006E0074007300000000000000FFFEFF052D004C00650076006C0002000000FFFEFF274C006500760065006C0020006300680061006E006700650073002C002000720061006D
310
00700073002C00200070006900740073002C002000640065007000720065007300730069006F006E007300000000000000FFFEFF052D00460069007800640002000000FFFEFF0F460069007800650064002000650071007500690070006D0065006E007400000000000000FFFEFF052D004F0063006300700002000000FFFE
310
FF1A4F00630063007500700061006E00740020006F007200200065006D0070006C006F0079006500650020006E0061006D0065007300000000000000FFFEFF052D00480069006400650002000000FFFEFF0E480069006400640065006E0020006F0062006A006500630074007300000000000000FFFEFF052D004100640074
310
00760002000000FFFEFF1141006400640069007400690076006500200065006C0065006D0065006E0074007300000000000000FFFEFF052D00520064006D00650002000000FFFEFF1B52006500610064002D006D00650020006C006100790065007200200028006E006F007400200070006C006F0074007400650064002900
310
000000000000FFFEFF052D005300630072006E0002000000FFFEFF14530063007200650065006E006500640020004200610063006B00670072006F0075006E0064007300000000000000FFFEFF052D00460069007800740002000000FFFEFF1170006C0075006D00620069006E006700200066006900780074007500720065
310
007300000000000000FFFEFF052D004C00650067006E0002000000FFFEFF144C006500670065006E00640073002C002000530079006D0062006F006C0020006B00650079007300000000000000FFFEFF052D0043006E007400720002000000FFFEFF0A430065006E007400650072006C0069006E006500000000000000FFFE
310
FF052D00420064007200790002000000FFFEFF0842006F0075006E006400610072007900000000000000FFFEFF052D0050006F007700720002000000FFFEFF0550006F00770065007200000000000000FFFEFF052D00470072007000730002000000FFFEFF06470072006F00750070007300000000000000FFFEFF052D004B
310
00650079006E0002000000FFFEFF084B00650079006E006F00740065007300000000000000FFFEFF052D00420072006300650002000000FFFEFF06420072006100630065007300000000000000FFFEFF052D005300700063006C0002000000FFFEFF0B5300700065006300690061006C007400690065007300000000000000
310
FFFEFF052D004F0074006C006E0002000000FFFEFF074F00750074006C0069006E006500000000000000FFFEFF052D005400700074006E0002000000FFFEFF1154006F0069006C0065007400200070006100720074006900740069006F006E007300000000000000FFFEFF052D005200650066006C0002000000FFFEFF0E52
310
00650066006C0065006300740065006400200050006C0061006E00000000000000FFFEFF052D005400680069006E0002000000FFFEFF195400680069006E0020007700650069006700680074002000670072006100700068006900630020006C0069006E0065007300000000000000FFFEFF052D005000650070006C000200
310
0000FFFEFF06500065006F0070006C006500000000000000FFFEFF052D004F0076006800640002000000FFFEFF084F007600650072006800650061006400000000000000FFFEFF052D004800720061006C0002000000FFFEFF16480061006E0064007200610069006C0073002C002000670075006100720064002000720061
310
0069006C007300000000000000FFFEFF052D004D0061007400630002000000FFFEFF0B4D00610074006300680020006C0069006E0065007300000000000000FFFEFF052D00520044004600460002000000FFFEFF14520065007400750072006E00200061006900720020006400690066006600750073006500720073000000
310
00000000FFFEFF052D00540074006C00620002000000FFFEFF1642006F007200640065007200200061006E00640020007400690074006C006500200062006C006F0063006B00000000000000FFFEFF052D00530077006300680002000000FFFEFF0853007700690074006300680065007300000000000000FFFEFF052D0041
310
00700070006C0002000000FFFEFF0A4100700070006C00690061006E00630065007300000000000000FFFEFF052D00540065006500730002000000FFFEFF094D00610069006E0020007400650065007300000000000000FFFEFF052D005700640077006B0002000000FFFEFF16410072006300680069007400650063007400
310
7500720061006C00200077006F006F00640077006F0072006B00000000000000FFFEFF052D004C0069006E00650002000000FFFEFF0D44006500660069006E0069006E00670020004C0069006E006500000000000000FFFEFF052D004D0061007300730002000000FFFEFF104D0061007300730069006E006700200045006C
310
0065006D0065006E0074007300000000000000FFFEFF052D005400610062006C0002000000FFFEFF0B440061007400610020007400610062006C0065007300000000000000FFFEFF052D00540068006C00640002000000FFFEFF0A5400680072006500730068006F006C0064007300000000000000FFFEFF052D0053006300
310
6800640002000000FFFEFF095300630068006500640075006C0065007300000000000000FFFEFF052D00460075006C006C0002000000FFFEFF0B460075006C006C002D00680065006900670068007400000000000000FFFEFF052D00480065006100640002000000FFFEFF1744006F006F007200200061006E006400200077
310
0069006E0064006F00770020006800650061006400650072007300000000000000FFFEFF052D004D006F007600650002000000FFFEFF124D006F0076006500610062006C0065002000650071007500690070006D0065006E007400000000000000FFFEFF052D00420072006E00670002000000FFFEFF1A4200650061007200
310
69006E0067007300200026002000640069007300740061006E006300650020006C006100620065006C007300000000000000FFFEFF052D0043006F006D00700002000000FFFEFF1349006E007400650072006E0061006C00200063006F006D0070006F006E0065006E0074007300000000000000FFFEFF052D00530074006F
310
00720002000000FFFEFF19530079007300740065006D002000730074006F007200610067006500200063006F006D0070006F006E0065006E0074007300000000000000FFFEFF052D0050006B006E00670002000000FFFEFF075000610072006B0069006E006700000000000000FFFEFF052D004E00690063006E0002000000
310
FFFEFF0F4E006F007400200069006E00200063006F006E0074007200610063007400000000000000FFFEFF052D00430068006100730002000000FFFEFF0543006800610073006500000000000000FFFEFF052D004E0070006C00740002000000FFFEFF204E006F006E002D0070006C006F007400740069006E006700200067
310
00720061007000680069006300200069006E0066006F0072006D006100740069006F006E00000000000000FFFEFF052D005600680063006C0002000000FFFEFF08560065006800690063006C0065007300000000000000FFFEFF052D00520065007600730002000000FFFEFF095200650076006900730069006F006E007300
310
000000000000FFFEFF052D00500061007400740002000000FFFEFF19540065007800740075007200650020006F00720020006800610074006300680020007000610074007400650072006E007300000000000000FFFEFF052D0053006C006100620002000000FFFEFF0553006C00610062007300000000000000FFFEFF052D
310
0043006F006D006D0002000000FFFEFF1A540065006C006500700068006F006E0065002C00200063006F006D006D0075006E00690063006100740069006F006E0073002000000000000000FFFEFF052D00430061007300650002000000FFFEFF08430061007300650077006F0072006B00000000000000FFFEFF052D005200
310
65007600630002000000FFFEFF0F5200650076006900730069006F006E00200063006C006F00750064007300000000000000FFFEFF052D0050006C006E00740002000000FFFEFF0650006C0061006E0074007300000000000000FFFEFF052D00530075006200740002000000FFFEFF14530075006200740072006100630074
310
00690076006500200065006C0065006D0065006E0074007300000000000000FFFEFF052D0050006E006C00730002000000FFFEFF0D530079007300740065006D002000700061006E0065006C007300000000000000FFFEFF052D00520069007300720002000000FFFEFF0C5300740061006900720020007200690073006500
310
72007300000000000000FFFEFF052D00530069006C006C0002000000FFFEFF0C570069006E0064006F0077002000730069006C006C0073000000000000000180FFFEFF074D0069006E006F0072002000320005000000004164642062656C6F77207468652073656C6563746564206974656DFFFEFF001600FFFEFF052D0041
310
0062006F00760002000000FFFEFF0E45006C0065006D0065006E00740073002000610062006F0076006500000000000000FFFEFF052D004E006F007400650002000000FFFEFF16470065006E006500720061006C0020005400650078007400200061006E00640020004E006F00740065007300000000000000FFFEFF052D00
310
460061007300630002000000FFFEFF06460061007300630069006100000000000000FFFEFF052D004900640065006E0002000000FFFEFF0A4900640065006E00740069006600690065007200000000000000FFFEFF052D0055006E006900740002000000FFFEFF0455006E0069007400000000000000FFFEFF052D00540069
310
0074006C0002000000FFFEFF065400690074006C0065007300000000000000FFFEFF052D00440069006D00730002000000FFFEFF0A440069006D0065006E00730069006F006E007300000000000000FFFEFF052D0053006C006300650002000000FFFEFF0653006C006900630065007300000000000000FFFEFF052D004700
310
6C0061007A0002000000FFFEFF0747006C0061007A0069006E006700000000000000FFFEFF052D00480069006400650002000000FFFEFF0F480069006400640065006E00200065006C0065006D0065006E0074007300000000000000FFFEFF052D00420064007200790002000000FFFEFF0D4500640067006500200062006F
310
0075006E006400610072007900000000000000FFFEFF052D00470072007000730002000000FFFEFF06470072006F00750070007300000000000000FFFEFF052D004F0074006C006E0002000000FFFEFF074F00750074006C0069006E006500000000000000FFFEFF052D005200650066006C0002000000FFFEFF0F52006500
310
66006C0065006300740065006400200050006C0061006E007300000000000000FFFEFF052D005400680069006E0002000000FFFEFF0E4D0069006E006F00720020006C0069006E00650077006F0072006B00000000000000FFFEFF052D004C0069006E00650002000000FFFEFF10470065006E006500720061006C0020006C
310
0069006E00650077006F0072006B00000000000000FFFEFF052D004E0070006C00740002000000FFFEFF154E006F006E002D0070006C006F007400740069006E006700200065006C0065006D0065006E0074007300000000000000FFFEFF052D00530066006900740002000000FFFEFF0653006F0066006600690074000000
310
00000000FFFEFF052D00500061007400740002000000FFFEFF0E4800610074006300680020007000610074007400650072006E007300000000000000FFFEFF052D005300630061006C0002000000FFFEFF10470072006100700068006900630061006C0020005300630061006C0065007300000000000000FFFEFF052D0052
310
0069007300720002000000FFFEFF06520069007300650072007300000000000000FFFEFF052D00530069006C006C0002000000FFFEFF05530069006C006C0073000000000000000180FFFEFF06530074006100740075007300060000000000000000A434770470040000B10000005073770400000000050000FFFEFF000F00
310
FFFEFF022D00540002000000FFFEFF0E540065006D0070006F007200610072007900200077006F0072006B00000000000000FFFEFF022D00450002000000FFFEFF124500780069007300740069006E006700200074006F002000720065006D00610069006E00000000000000FFFEFF022D00380002000000FFFEFF07500068
310
0061007300650020003800000000000000FFFEFF022D00390002000000FFFEFF075000680061007300650020003900000000000000FFFEFF022D00360002000000FFFEFF075000680061007300650020003600000000000000FFFEFF022D00370002000000FFFEFF075000680061007300650020003700000000000000FFFE
310
FF022D004E0002000000FFFEFF084E0065007700200077006F0072006B00000000000000FFFEFF022D00340002000000FFFEFF075000680061007300650020003400000000000000FFFEFF022D00350002000000FFFEFF075000680061007300650020003500000000000000FFFEFF022D00320002000000FFFEFF07500068
310
0061007300650020003200000000000000FFFEFF022D004D0002000000FFFEFF114900740065006D007300200074006F0020006200650020006D006F00760065006400000000000000FFFEFF022D00330002000000FFFEFF075000680061007300650020003300000000000000FFFEFF022D00310002000000FFFEFF075000
310
680061007300650020003100000000000000FFFEFF022D00460002000000FFFEFF0B460075007400750072006500200077006F0072006B00000000000000FFFEFF022D00440002000000FFFEFF144500780069007300740069006E006700200074006F002000640065006D006F006C006900730068000000000000000600FF
310
FF04001A004163416563556B4C61796572436F6D706F6E656E744669656C64FFFEFF174400690073006300690070006C0069006E0065002000440065007300690067006E00610074006F0072002000310001000000FFFEFF0440002C0040004000000000000100000000FFFEFF014100000000000780FFFEFF174400690073
310
006300690070006C0069006E0065002000440065007300690067006E00610074006F0072002000320001000000FFFEFF0440002C0040004000010000000100000000FFFEFF014400000000000780FFFEFF054D0061006A006F00720005000000FFFEFF052D00400040004000400000000000010000002DFFFEFF052D005700
310
61006C006C00000000000780FFFEFF064D0069006E006F007200310005000000FFFEFF022D002A0001000000010000002DFFFEFF052D004900640065006E00000000000780FFFEFF064D0069006E006F007200320005000000FFFEFF022D002A0001000000010000002DFFFEFF052D005400650078007400000000000780FF
310
FEFF0653007400610074007500730002000000FFFEFF022D002A0001000000010000002DFFFEFF022D004E0000000000050000010203040500FFFEFF00FFFEFF0320002D002000FFFEFF022C002000FFFEFF012000FFFEFF0320002D002000FFFEFF00
  0
XRECORD
  5
AC75A
102
{ACAD_REACTORS
330
A21DF
102
}
330
A21DF
100
AcDbXrecord
280
     1
102
DISPLAYNAME
  1
Imperial24
102
FLAGS
 90
        0
  0
XRECORD
  5
AC759
102
{ACAD_REACTORS
330
A21DD
102
}
330
A21DD
100
AcDbXrecord
280
     1
102
DISPLAYNAME
  1
Imperial24
102
FLAGS
 90
        0
  0
CELLSTYLEMAP
  5
AC758
102
{ACAD_REACTORS
330
B4E
102
}
330
B4E
100
AcDbCellStyleMap
 90
        3
300
CELLSTYLE
  1
TABLEFORMAT_BEGIN
 90
        5
170
     1
 91
        0
 92
    32768
 62
   257
 93
        1
300
CONTENTFORMAT
  1
CONTENTFORMAT_BEGIN
 90
        0
 91
        0
 92
      512
 93
        0
300

 40
0.0
140
1.0
 94
        5
 62
     0
340
11
144
0.25
309
CONTENTFORMAT_END
171
     1
301
MARGIN
  1
CELLMARGIN_BEGIN
 40
0.06
 40
0.06
 40
0.06
 40
0.06
 40
0.18
 40
0.18
309
CELLMARGIN_END
 94
        6
 95
        1
302
GRIDFORMAT
  1
GRIDFORMAT_BEGIN
 90
        0
 91
        1
 62
     0
 92
       -2
340
0
 93
        0
 40
0.045
309
GRIDFORMAT_END
 95
        2
302
GRIDFORMAT
  1
GRIDFORMAT_BEGIN
 90
        0
 91
        1
 62
     0
 92
       -2
340
0
 93
        0
 40
0.045
309
GRIDFORMAT_END
 95
        4
302
GRIDFORMAT
  1
GRIDFORMAT_BEGIN
 90
        0
 91
        1
 62
     0
 92
       -2
340
0
 93
        0
 40
0.045
309
GRIDFORMAT_END
 95
        8
302
GRIDFORMAT
  1
GRIDFORMAT_BEGIN
 90
        0
 91
        1
 62
     0
 92
       -2
340
0
 93
        0
 40
0.045
309
GRIDFORMAT_END
 95
       16
302
GRIDFORMAT
  1
GRIDFORMAT_BEGIN
 90
        0
 91
        1
 62
     0
 92
       -2
340
0
 93
        0
 40
0.045
309
GRIDFORMAT_END
 95
       32
302
GRIDFORMAT
  1
GRIDFORMAT_BEGIN
 90
        0
 91
        1
 62
     0
 92
       -2
340
0
 93
        0
 40
0.045
309
GRIDFORMAT_END
309
TABLEFORMAT_END
  1
CELLSTYLE_BEGIN
 90
        1
 91
        1
300
_TITLE
309
CELLSTYLE_END
300
CELLSTYLE
  1
TABLEFORMAT_BEGIN
 90
        5
170
     1
 91
        0
 92
        0
 62
   257
 93
        1
300
CONTENTFORMAT
  1
CONTENTFORMAT_BEGIN
 90
        0
 91
        0
 92
      512
 93
        0
300

 40
0.0
140
1.0
 94
        5
 62
     0
340
11
144
0.18
309
CONTENTFORMAT_END
171
     1
301
MARGIN
  1
CELLMARGIN_BEGIN
 40
0.06
 40
0.06
 40
0.06
 40
0.06
 40
0.18
 40
0.18
309
CELLMARGIN_END
 94
        6
 95
        1
302
GRIDFORMAT
  1
GRIDFORMAT_BEGIN
 90
        0
 91
        1
 62
     0
 92
       -2
340
0
 93
        0
 40
0.045
309
GRIDFORMAT_END
 95
        2
302
GRIDFORMAT
  1
GRIDFORMAT_BEGIN
 90
        0
 91
        1
 62
     0
 92
       -2
340
0
 93
        0
 40
0.045
309
GRIDFORMAT_END
 95
        4
302
GRIDFORMAT
  1
GRIDFORMAT_BEGIN
 90
        0
 91
        1
 62
     0
 92
       -2
340
0
 93
        0
 40
0.045
309
GRIDFORMAT_END
 95
        8
302
GRIDFORMAT
  1
GRIDFORMAT_BEGIN
 90
        0
 91
        1
 62
     0
 92
       -2
340
0
 93
        0
 40
0.045
309
GRIDFORMAT_END
 95
       16
302
GRIDFORMAT
  1
GRIDFORMAT_BEGIN
 90
        0
 91
        1
 62
     0
 92
       -2
340
0
 93
        0
 40
0.045
309
GRIDFORMAT_END
 95
       32
302
GRIDFORMAT
  1
GRIDFORMAT_BEGIN
 90
        0
 91
        1
 62
     0
 92
       -2
340
0
 93
        0
 40
0.045
309
GRIDFORMAT_END
309
TABLEFORMAT_END
  1
CELLSTYLE_BEGIN
 90
        2
 91
        1
300
_HEADER
309
CELLSTYLE_END
300
CELLSTYLE
  1
TABLEFORMAT_BEGIN
 90
        5
170
     1
 91
        0
 92
        0
 62
   257
 93
        1
300
CONTENTFORMAT
  1
CONTENTFORMAT_BEGIN
 90
        0
 91
        0
 92
      512
 93
        0
300

 40
0.0
140
1.0
 94
        2
 62
     0
340
11
144
0.18
309
CONTENTFORMAT_END
171
     1
301
MARGIN
  1
CELLMARGIN_BEGIN
 40
0.06
 40
0.06
 40
0.06
 40
0.06
 40
0.18
 40
0.18
309
CELLMARGIN_END
 94
        6
 95
        1
302
GRIDFORMAT
  1
GRIDFORMAT_BEGIN
 90
        0
 91
        1
 62
     0
 92
       -2
340
0
 93
        0
 40
0.045
309
GRIDFORMAT_END
 95
        2
302
GRIDFORMAT
  1
GRIDFORMAT_BEGIN
 90
        0
 91
        1
 62
     0
 92
       -2
340
0
 93
        0
 40
0.045
309
GRIDFORMAT_END
 95
        4
302
GRIDFORMAT
  1
GRIDFORMAT_BEGIN
 90
        0
 91
        1
 62
     0
 92
       -2
340
0
 93
        0
 40
0.045
309
GRIDFORMAT_END
 95
        8
302
GRIDFORMAT
  1
GRIDFORMAT_BEGIN
 90
        0
 91
        1
 62
     0
 92
       -2
340
0
 93
        0
 40
0.045
309
GRIDFORMAT_END
 95
       16
302
GRIDFORMAT
  1
GRIDFORMAT_BEGIN
 90
        0
 91
        1
 62
     0
 92
       -2
340
0
 93
        0
 40
0.045
309
GRIDFORMAT_END
 95
       32
302
GRIDFORMAT
  1
GRIDFORMAT_BEGIN
 90
        0
 91
        1
 62
     0
 92
       -2
340
0
 93
        0
 40
0.045
309
GRIDFORMAT_END
309
TABLEFORMAT_END
  1
CELLSTYLE_BEGIN
 90
        3
 91
        2
300
_DATA
309
CELLSTYLE_END
  0
ENDSEC
  0
SECTION
  2
ACDSDATA
 70
     2
 71
     8
  0
ACDSSCHEMA
 90
        0
  1
AcDb_Thumbnail_Schema
  2
AcDbDs::ID
280
    10
 91
        8
  2
Thumbnail_Data
280
    15
 91
        0
101
ACDSRECORD
 95
        0
 90
        1
  2
AcDbDs::TreatedAsObjectData
280
     1
291
     1
101
ACDSRECORD
 95
        0
 90
        2
  2
AcDbDs::Legacy
280
     1
291
     1
101
ACDSRECORD
  1
AcDbDs::ID
 90
        3
  2
AcDs:Indexable
280
     1
291
     1
101
ACDSRECORD
  1
AcDbDs::ID
 90
        4
  2
AcDbDs::HandleAttribute
280
     7
282
     1
  0
ACDSSCHEMA
 90
        1
  1
AcDbDs::TreatedAsObjectDataSchema
  2
AcDbDs::TreatedAsObjectData
280
     1
 91
        0
  0
ACDSSCHEMA
 90
        2
  1
AcDbDs::LegacySchema
  2
AcDbDs::Legacy
280
     1
 91
        0
  0
ACDSSCHEMA
 90
        3
  1
AcDbDs::IndexedPropertySchema
  2
AcDs:Indexable
280
     1
 91
        0
  0
ACDSSCHEMA
 90
        4
  1
AcDbDs::HandleAttributeSchema
  2
AcDbDs::HandleAttribute
280
     7
 91
        1
284
     1
  0
ACDSRECORD
 90
        0
  2
AcDbDs::ID
280
    10
320
A21A1
  2
Thumbnail_Data
280
    15
 94
     2865
310
89504E470D0A1A0A0000000D4948445200000100000000C508030000008CFEDCE700000300504C5445FFFFFF000000C8C8C80000000000000000000000000000000000000000000000000000330000660000990000CC0000FF0033000033330033660033990033CC0033FF0066000066330066660066990066CC0066FF0099
310
000099330099660099990099CC0099FF00CC0000CC3300CC6600CC9900CCCC00CCFF00FF0000FF3300FF6600FF9900FFCC00FFFF3300003300333300663300993300CC3300FF3333003333333333663333993333CC3333FF3366003366333366663366993366CC3366FF3399003399333399663399993399CC3399FF33CC00
310
33CC3333CC6633CC9933CCCC33CCFF33FF0033FF3333FF6633FF9933FFCC33FFFF6600006600336600666600996600CC6600FF6633006633336633666633996633CC6633FF6666006666336666666666996666CC6666FF6699006699336699666699996699CC6699FF66CC0066CC3366CC6666CC9966CCCC66CCFF66FF0066
310
FF3366FF6666FF9966FFCC66FFFF9900009900339900669900999900CC9900FF9933009933339933669933999933CC9933FF9966009966339966669966999966CC9966FF9999009999339999669999999999CC9999FF99CC0099CC3399CC6699CC9999CCCC99CCFF99FF0099FF3399FF6699FF9999FFCC99FFFFCC0000CC00
310
33CC0066CC0099CC00CCCC00FFCC3300CC3333CC3366CC3399CC33CCCC33FFCC6600CC6633CC6666CC6699CC66CCCC66FFCC9900CC9933CC9966CC9999CC99CCCC99FFCCCC00CCCC33CCCC66CCCC99CCCCCCCCCCFFCCFF00CCFF33CCFF66CCFF99CCFFCCCCFFFFFF0000FF0033FF0066FF0099FF00CCFF00FFFF3300FF3333
310
FF3366FF3399FF33CCFF33FFFF6600FF6633FF6666FF6699FF66CCFF66FFFF9900FF9933FF9966FF9999FF99CCFF99FFFFCC00FFCC33FFCC66FFCC99FFCCCCFFCCFFFFFF00FFFF33FFFF66FFFF99FFFFCCFFFFFF0000000D0D0D1A1A1A2828283535354343435050505D5D5D6B6B6B787878868686939393A1A1A1AEAEAEBB
310
BBBBC9C9C9D6D6D6E4E4E4F1F1F1FFFFFF000000000000000000000000000000000000000000000000000000000000B0E2D235000007584944415478DAED9D4982EB2A0C45B522F63FF24A34CAF80DB484674C27018E9B8AE326975F495E0CB8C241BA88A6F2E9DF8F27FA47BF9B00000000A005F07AF9C7439FD70178705A
310
6B014F4DAB001000FC38801700000000400401002E0000000000104100800B0000000000441000E0020000000000110400B80000000000400401002E0000000000104100800B000000000044F09CC42A3D0FC08A461D0FE04417189BB4D8AA0703E0A9FD5B00AC4EB700C0FE674DB7EEE9FA1B00E0B56DF345DE74F26D4590
310
53DB960BBEB5F2BB0228DD4AFB44E0E62EC0A56B7F520338FB001FFA7BAE0A80B313ACD080A702E09571C013E702D100566AC0BE18F0CA0072FB69751CB429FCBBBA0B3015001B22E6C700E012076F9F0F3F0000D34603785A1CB0D9001E360A30FD3600B681E0CFB900D30E0398990EAF9A1C5D0C00D35E0300803301F0B7
310
DACF2769007D09002B9FDE046031183A03801B7FDC7C1D37FD746E335E657731008D0B0CD5DB94A4BCBAB1F5E3C30DBDE442A27EE6548F7B371D2E02A0FE20E35BF1AF22E1FDF892DAE83A795400E84C36995CF224573C2034DA03A0EDB49C256D9936AF9FC936931564F9B8DAFED905AC090C62DA172F89FF914EDE98E913
310
994C2EE6E4B3B85B91AFB22032BC7D5BDAE801502FD3B7CC64B2AD49DCADC83BE3807300D0D4924E9EB474B8CEEC0290B300BCB601906E1B4B9E1417B0004A269B8ABE0D52E470FB82C8D700944F180C79FCAF9327C93C7226DBCC1180AAE8B9C44D7279331BFAAE082EBB40F4F2190D08045245AE15B5B280DCCAEB8C02FD
310
38400F83B18F7B79A42D4042FB45A34B2E5057E4B3002C89A0B46F06EA6980F486086E33398D9F55C53977FECA64E88DC0F402DAD8C7D28D763380994CAF09DDBCBE15AC3947F37717780380437328F57A7C9B62A172392AB929C9E9B22AC53315593B42E9F6D5FB027C2800D29FB8497359DC549C24B05F9DF574990D8AE3
310
01CC6B40FAC0A521B63D75E3936944B513F53634939B4BB122DB915F2D20F089009897FB5F7321D3FF44E54282C2AA14471CBEF9DC847FDD60E8BBA3001B7B1DA7B8A98DD46FBF73AA80AA4BB9A20B4532D2D02A691A669B7A1600165246ECFC728648816085707CF2257211E500C580DCA06E52E834EDABA4FF5000EF5C40
310
8B981BFC624ED520315EEE5741920D30371632569C56926A0521116E9BFA89C8F0EF2B4259020280B17964E4CC3F91F21137B82469CA190AB284888C3C4C9E406F34E0CC15A13C06B9FC94BBA84EAE2AC1AB4B483D1B56448E5E10595811CAA6ECBCB73AA5DF1301C93A1E8A880B7DABBD84CA25176F9424C40448FDF06F6D
310
1C7058282C71DC9A3EB7CB669D96C5CAEA4828E23AE2A09CC497A8428AEC0CDC8D034E0790624127A5F744CF799408A662B3818223122D8226C056C7862C003E14C06B1140180EA305E48960B2853C350CB9CE44F94AE84939898DADCA486A67002B23C1434701A503CA02BCD12A0BD02EA02DC00ABDD2006A47D0AC2B4B71
310
C0E1003AD354769D3434FFF85B9A8607B3127E1280D60438ACF97979F77B7B21B09DB48F24AE0B46BB70F121E52192D643E34DC2A3BA3C75B7E8F3135F8C03965684A65DADA05F41C0C28ED690046C88AF1E4F9439BD8040F955E220E9EACB6959581DA0F9D019DACFEC0E473573523C3CADEF4E2BC3656EE4A20E909D382B
310
242E962A977D4B458D826DC3CF3E23C4D1507DD7FA313CBE1D28A921657376F191B2882A4B0FC3A0BE3CB52E94E6FEF6507D46E8FB005498A7347E68FEB114072C9598393851074227584030D8C9725D9EDA0FC9878712D1B8E429D1C549BD969BB8F6F2F43A7376EC0A00267B75E1C958BEA4BD8E325038495BFFF6B5DCC4
310
B597D306D179CBE28B2E10C5DB65F51E52DF0DA50F3B1A6F5E290542F5E5288717D91869011C1F07D4B3C153B7C63A0072146C4490CA64C84C87FB6BE5F926AEBBA2CE7C610079084FEB01390E083BDEC9A4AB38C0C6402A0E682E4F2BC85705E0BE96AE6C01F57A401307507F94A755714058755A3E2778E628D0B4A71708
310
6DD937B33B28BF0D80E55400AFF32D6011C02534C07EF27C0C6018DEED0F2FEE28AE03B0F74B243E088088CC2A963DF440CDA05FED2413558B63F5790311BA2C00BB5B2EF5BA915940AA0E800ACD1D7E533794EE2FFA1E809D7F2F30CC2D20ED4E7F0470DC28B0F4893E75BEEB2C00BBFE66E8080004009FD2802F00F8DB17
310
3C01C0A500D0BD011C3F17B8423A14C00B00CCAFA127A54D00F8837B727704A0CE23A8FDE9B427519B61DCC0E77882295DE08B19D10611641392AAB37A3D00F537BC5500F8EE00B8DA8EB248EAA6770E31DDD1054A2FC62F79AA467ADBD98D0590C1734300ACBFE2936F9F760188EA475FFA8297EBB900150BE8987F127CBE
310
E04839AF409B44B0B838BD05C00F05A007F7EA7CBE15B8C701488110CFAE4C550A7FA360716328CC34F7977B3F0160FDC1FCFB8C12F8FF0B3C65410400E0020000000000110400B80000000000400401002E0000000000104100800B0000000000441000E0020000000000110400B80000000000400401002E000000000010
310
C15D001E9CD6B9802FF7D4E73516F0430900000000FE4D4FBF9C7E1EC07FDF90ABEFB09E6B870000000049454E44AE426082C067CC082D8F06530DC0ED01D87C80CD0819807703B0EB02160206C0001800134103602160000C800130113400160206C0001800134103602160000C800130117C1180076FEB42A03FEEA98F6B
310
3CE0459B01300006E0DFF0F0E6EDF500FE03025A3D6CF1D80F470000000049454E44AE4260826D582F0000000049454E44AE4260821F3C6BE946B10000000049454E44AE426082
  0
ACDSRECORD
 90
        0
  2
AcDbDs::ID
280
    10
320
A21B9
  2
Thumbnail_Data
280
    15
 94
     2969
310
89504E470D0A1A0A0000000D4948445200000100000000B5080300000087DCD12600000300504C5445FFFFFF000000C8C8C80000000000000000000000000000000000000000000000000000330000660000990000CC0000FF0033000033330033660033990033CC0033FF0066000066330066660066990066CC0066FF0099
310
000099330099660099990099CC0099FF00CC0000CC3300CC6600CC9900CCCC00CCFF00FF0000FF3300FF6600FF9900FFCC00FFFF3300003300333300663300993300CC3300FF3333003333333333663333993333CC3333FF3366003366333366663366993366CC3366FF3399003399333399663399993399CC3399FF33CC00
310
33CC3333CC6633CC9933CCCC33CCFF33FF0033FF3333FF6633FF9933FFCC33FFFF6600006600336600666600996600CC6600FF6633006633336633666633996633CC6633FF6666006666336666666666996666CC6666FF6699006699336699666699996699CC6699FF66CC0066CC3366CC6666CC9966CCCC66CCFF66FF0066
310
FF3366FF6666FF9966FFCC66FFFF9900009900339900669900999900CC9900FF9933009933339933669933999933CC9933FF9966009966339966669966999966CC9966FF9999009999339999669999999999CC9999FF99CC0099CC3399CC6699CC9999CCCC99CCFF99FF0099FF3399FF6699FF9999FFCC99FFFFCC0000CC00
310
33CC0066CC0099CC00CCCC00FFCC3300CC3333CC3366CC3399CC33CCCC33FFCC6600CC6633CC6666CC6699CC66CCCC66FFCC9900CC9933CC9966CC9999CC99CCCC99FFCCCC00CCCC33CCCC66CCCC99CCCCCCCCCCFFCCFF00CCFF33CCFF66CCFF99CCFFCCCCFFFFFF0000FF0033FF0066FF0099FF00CCFF00FFFF3300FF3333
310
FF3366FF3399FF33CCFF33FFFF6600FF6633FF6666FF6699FF66CCFF66FFFF9900FF9933FF9966FF9999FF99CCFF99FFFFCC00FFCC33FFCC66FFCC99FFCCCCFFCCFFFFFF00FFFF33FFFF66FFFF99FFFFCCFFFFFF0000000D0D0D1A1A1A2828283535354343435050505D5D5D6B6B6B787878868686939393A1A1A1AEAEAEBB
310
BBBBC9C9C9D6D6D6E4E4E4F1F1F1FFFFFF000000000000000000000000000000000000000000000000000000000000B0E2D235000006C94944415478DAED9C49DADB200C867522EEBFE224DFAACB3E5DE8088D99C5E0388EE351FC4D1C2343AD17210426A17F0F4FF4EFEF839303400F4E0A4001B400FEBCD28DDFDF02F873
310
F3F41EC0BD6D5E01280005A00014800250000A4001280005A00014800250000A4001280005A00014800250000A4001280005A00014800250000A4001280005A000CE9D50A4FB0158A0D4AD01BC547AABD58D01C0E9FF0980C5E912001094DBA29F5CD102B054376F27338D7C61004B7C00F5F5BF3C80D4013E1A06EE0300B9
310
691FE90390FA007EFC3F9D13007227203C10000ADFB60400EE0A60990F5834545C0A40D27F691C00FA30FC3B37005006F041C47C1B004861C08AF9F00D00803E34809B8D02A04F0D4001DC0AC02AFD6F140A83560058380A5C0100AA99C0D3008068650FC09100B079FB8F0C006B09FCD6071C0FE02D8303001843FE6F2C34
310
DD7A5EB9780941670660E5594A9C8F937AC618DB4B2624EA0BA77206BD4AED49E280EA46A6339E3E30FB8CD7C14615C7322F4D4208218C6D0BFE2634FA1840DB6859C6CD4573B242CA904294B2254E70DF40489A80657197318FA77F96A9115A2799924D428882CCE05EAD38CB82889D394B4AF2A4675F4601816D55F305C1
310
DD92581908ED0F80ADD79F8732160020C991041035E06B006072A65FA998845E46020F72491B7A80A8F5A583AB756D20B41B00E6C607F464545900EA82283B8F9701A71905E62C804B4B9E6E7D24733E20485109697201DC8C02BF7A42B00D00EE3A41AF464716BCA01BEBD1168487C3ADB73F10C0B87B59AE5C40B6001EC9
310
FC20614B079885F0D2A6E070BCDF250E9801D04BD1027A89A2171C14C4B864D70A96AE8AF7317D0F00A94589937F0B3ACA7371EAAF401415D990A7A960DC325137FBE2E702F88D0F80D0B2D291D398D7CD41A96540886141C8E9728102070240799754377AAD443CEDE81F2F0306CC500DFC84C3E6028DFEC459B17C5A69DE
310
E44166858F4079894B4E7DB4C14F3716DA174079B3D344BE6AB6D4DA4149E32F09DE021DE7E1AF280A2261C08CEB3F0A00CAB633F6F547450E09E53DA174851FEE1BD330D38A4055D0078749CBDE14F0400BA0A2F1A830819EDF9B9639ACBF64BA7D6ECC9F4425E5051D65B7890CBF5D11426A4372165077DF9442F3DAD725
310
94DB3FB9BFA868A844BA4FAFF4D807ECBA43A40E4EB28A26BCDAD1C705F8516A6647AA4125AE86810F386041A41E0743E34DBD3C37665CF989AB3CFE0A77C9CCD868DC8BBA8115EA4580CF02A19F84C23E140C4E70BAF7EC04D3CA4F5E0131AEA7C81E5EC2A040B1134D894840FA80C3015018B94D7871B28038E7893A3A69
310
EDE3A5D3AC2AE9D840A00E110B1F0B2074830180FC814C6CE3AEEEA21F0D8269390358B828F4E3E702C9060400EA00F01DC4B47172113CC44AAAF080D2B8D2FA809D01F4A6A9309D649B0FDFA5D7E86084D11F04A035018445ADE9619F61BF7C11973BE2DAB8CF7641AE09D994B2C33CD01DAB4AE2D1A9C1E5FE096CB48D78
310
8B87A3C1427317A06A18CC3EA018E4722054BA826A2CE51042F850828BA5B1ADB6516F00202C60C961D0FB000A6BE4215E36149C60382712AB08B99252ECDA3E2F8874C2BE83F7082134230500711E644376781040D909526A769293685F0999528C7C82B1FEEBBF3AB69505C85120C63FA22FC43880A5D1E70F5525620488
310
16003A1F8030790F2318C5531B8EE14180B77EF2978527DF65678895505149CE76C741CCBFF2BB325704307E3C7CB8132C0184535B7A439F5D0268DC5FA71296CEF2344F866A00E1F68DD4CE46ADACD0AEF0F1BDA1A0A8842A44382D00EECD63A8170AB30C153A53BE7A3294FD20CE6A0166BF74290B282643D4B180910D88
310
C9905C41E7B377812A75000C27C1EFA478E7048FFCFA3C060AD9BC34B450CD612EF8E100F81200C65D80374AABB7CACEAD126CB357388ED794DFAD0D9FA70D01B530ACF876B26355BD326705907673940F05E5AE875A9E636116DB41AAF3AA679CD8027A29AD1BCD6E72E60FBAEB97007E3819EA03E8EFA7F8229D14C0DB1B
310
FA5514AF004E12095EC602FAC6F0AB6F8D7DF9FB4E0A40016C06E0181FB07752007B00D8CFA0CF390C02321E7BB34B6BFC45705C1380D8939577AA21FFE8DF78A30A89C3B98C683980B209D3269DA818DD1E00C2B67CCA7A970A97D918EE5AA24B03C83FEC54694469AFD408001547BA3080DCDB2F9F5601705D3DFDCE637A
310
587F8171712E3258BE4D2E5B009AD91ED5AEEE7E0008A5131C00102EE17E00CA40A6DA2C8B075800E56F2A74A2BEEF76695C654568A8DB5300DC32290005A00014800250000A4001280005A00014800250000A4001280005A00014800250000A4001280005A00014800250000A4001280005A0006E9E1601B8F3FB5B00CF4A
310
0A4001BC00FC7D7072001E9EFE03BF2C83A3A449B1720000000049454E44AE4260829022ED49BD012C0CBC7E74785BD6E56DB3E0FB7F822744563A228BB2DEDEDD860B468B771A00526ABF34C87A29295258B84D0B110CFE5925A0C9082C4011FDC4448964AEFCE701D02EC9D82D99C510A24E4ACDC1BC08807524328B9664
310
9729B80600798B8DCAA58B2C7B87579100F988082C0588D60F392B00F9580EB6BC889C60BE8604C8213718D4E22C8FCA7E26E3FB1D41398B113CCD9AC0E5A6C12F67840C8001300006C000740070E762000C8001300006C00018000360000C80013000066019407E1D65DC9DFDEF9EF96D1D82CFEC0D956F3ED7D303807A61
310
69E1DFC1C2AE53F160733A727900E588D600246257075088BA7A6A7D0E208A09DD4702E0D1445EF9A7E0D6F695CE5C1800A56733D78C60FE9FC0FC5594CF6529B9B404DCB53CC60F587B7FB405C03965F7770098B101BD751D38470038AF69FF32007A38009A01502FAC3F251A5CF0810DC0958CA0E5030C8001300006C000
310
18807700DCBC3401B8F37715C0B38A0130002F007F1F5C3C808797FFF3DD7A380A6728600000000049454E44AE426082
  0
ACDSRECORD
 90
        0
  2
AcDbDs::ID
280
    10
320
22
  2
Thumbnail_Data
280
    15
 94
     3005
310
89504E470D0A1A0A0000000D49484452000001000000007B0803000000AC3EAEE200000300504C5445212830000000C8C8C80000000000000000000000000000000000000000000000000000330000660000990000CC0000FF0033000033330033660033990033CC0033FF0066000066330066660066990066CC0066FF0099
310
000099330099660099990099CC0099FF00CC0000CC3300CC6600CC9900CCCC00CCFF00FF0000FF3300FF6600FF9900FFCC00FFFF3300003300333300663300993300CC3300FF3333003333333333663333993333CC3333FF3366003366333366663366993366CC3366FF3399003399333399663399993399CC3399FF33CC00
310
33CC3333CC6633CC9933CCCC33CCFF33FF0033FF3333FF6633FF9933FFCC33FFFF6600006600336600666600996600CC6600FF6633006633336633666633996633CC6633FF6666006666336666666666996666CC6666FF6699006699336699666699996699CC6699FF66CC0066CC3366CC6666CC9966CCCC66CCFF66FF0066
310
FF3366FF6666FF9966FFCC66FFFF9900009900339900669900999900CC9900FF9933009933339933669933999933CC9933FF9966009966339966669966999966CC9966FF9999009999339999669999999999CC9999FF99CC0099CC3399CC6699CC9999CCCC99CCFF99FF0099FF3399FF6699FF9999FFCC99FFFFCC0000CC00
310
33CC0066CC0099CC00CCCC00FFCC3300CC3333CC3366CC3399CC33CCCC33FFCC6600CC6633CC6666CC6699CC66CCCC66FFCC9900CC9933CC9966CC9999CC99CCCC99FFCCCC00CCCC33CCCC66CCCC99CCCCCCCCCCFFCCFF00CCFF33CCFF66CCFF99CCFFCCCCFFFFFF0000FF0033FF0066FF0099FF00CCFF00FFFF3300FF3333
310
FF3366FF3399FF33CCFF33FFFF6600FF6633FF6666FF6699FF66CCFF66FFFF9900FF9933FF9966FF9999FF99CCFF99FFFFCC00FFCC33FFCC66FFCC99FFCCCCFFCCFFFFFF00FFFF33FFFF66FFFF99FFFFCCFFFFFF0000000D0D0D1A1A1A2828283535354343435050505D5D5D6B6B6B787878868686939393A1A1A1AEAEAEBB
310
BBBBC9C9C9D6D6D6E4E4E4F1F1F1FFFFFF000000000000000000000000000000000000000000000000000000000000B21171F60000036B4944415478DAED9B0192EC101086FB8C0EEC247D883EC213822698CCBE540DF17F3595CDB6D8D2BFD6841D220000000000000000000000C04FE1C8EBDDDC598091873B08C0C1CD0F
310
020C59DDFF8100AEF845BE0E3DA47B21F0CA01401B0BC01F72C0EBA7F9DCC7FBFAFF7908BC3D00E2A52300BD74FA5301706B2DFC4201986E0840FCEAF83F67816D13E09D00786D0EBC19002BA400FE9F00A86AF32E02709AE33EFDAD052680AA31868CFBD0D568AA2A86D87C16A023C1CFBDB6EAD68AB5F9620E6C45CBE86D
310
1C2A86CAEEBA8A008527DE2222BAA4B0D546CE368EC6D5667DD557564854811C385BDFC8D9C6523EC8CB4C83B6799B7D2D6C521899B400D59337DF056615402A5F4F5B6164FD6012C0392579242C30095C059046049C0E6901381A6D1801AAB6F34B96791728049096001D23476312403DB8D0BAD7B6C6AD14F94E95662317
310
0FB248F9E025BAA74B828DD1584DEFC1D71BC633026C35A5961E4F7720D068034B0FAA0D3CFC35AE109873CF4F7B22A286005FDDA5ABEF2DFF3B02E8D3B2F9D701C90B633A71900BB85B7070FC688DFD3937C06CD5FDCE1BDB56C0D94DDB7F5B6A5638AA3C9E5B00CA01D009815870C91557C9AA613FF7AB40E26CADF19F06
310
5F155C86C0BC39C05649D0F8CF39DFE76B51504540A3200F7C4A4970AE49A0D5089F07B33BA405A08100940BD2B4C1D569D91202F820B81D0124E3D088A2F2682534D552D8AD62F9B121C02A04068BC19992E091074D8155D7AFF05991EA13F3E923E0A12418964271C7480D81E95F0CFD1BBE77C7A732FFF61FF60028E73A
310
CAB98ECEC7540D3FF0FDCF7A07608533D087A741EE25DDA92340C8883F0C383AD9FA6E0D7BA587934799BF3D7BFFDC2F56355264B4F603E61740823B2EA029AF03FC3509205100C9B7AA462A5BF224947DD39D2FD14FEB1DB2E7B980F2B37456D588565E548062C14739073492A0E45B5523BD2E2F298079925523A0A09C05
310
6EC39D1C30FD4CF890002C9B0B202301A6FE87712E1219E58DEE7267947AF7B4BC00F51949D82CC95B26EABCEB7AF85716AC2E40686FD825B37F99D5BF1360D294909AF7500B21C06ADF9879BA5D10E07DFF26BEB600FB7EBF43EFD10DBFC7F0EA984D197E5B01E2106008300F3F138036FCBE4714A0E8801FF4C6EF86D735
310
09D28E02744F2F7618123C3ABDD8798904000000000000000000000000000000000000000000989D7FEB9712017E149FE30000000049454E44AE426082454E44AE426082F69234BB78C9BE4C025B0075DE4DAA724E36E2AA440B75BDAD8A60B99BF60800B81C0C2B0E7E50ACDACBD2E5320145A08266AD071484349BAE8C9B
310
34C9B591E5F6138FC30581BC62B544D51753C62ECE5D958AD01C9FA88E01A44F01C2B5A9F36F8E027ED08124522E201D71D5172B3581F011B44703BDD131033A6ACF885C19A6188B6F9E05BE776DD4227403F2C6E85B84E15BB5CF7785D08FDAE2BD0D703733C580BCFFF1C5F32076B5D8341C313329669D0621C7CACC4B2D
310
2F503A1255B7124EBAEDC99B1DF8140481ED9B673C48E353421D70BA5433EAFC5C269CF052C39B2B2BC2AA397AD47D5FD210A0A60EE0D017D7EC559BC40973E7D6D0850AD0F2628B444A6ADCB80432110CE42B3E593160534EEDDC6CB49E072D9F1836B40327BC6596DB01501AE9386C8A4EB5809CB754E5025C07E44AB0E4
310
2E07250B5467E77A50EA25D299AF0C36EE209B7953244297DF65CD5EACB72D84C0AA70EA81937A18A80D12A9633ABE043817000EDD4E5201CF78EE97E78A20D931473789F7F6C0492A68DECA578768E3C2C86C00D2F664D3068ED972970B5FE6C9EF4878079E31071C2A943C1079665BF0A820C876E92479F17A3D6D024095
310
72D40C3854B4FACBE024373BA3D8E6878510EC298468E2B5D197004C2F84523BE4441630B110E241A8864E02803B8ECE6401A48EC3E5F0EE8D91C5D75EF7AAD80CBED44AC7B301D02B61036028BB6F0EDF0360D28331B8B1740B00F81C0AAC0E43CF03A0390D3ED002F601F0F32746C6CBF4BE1F7D2306E4B9730120856AE9
310
6CFA0680E6160AE35E123E20757C60F19DF199A154CDE6F3CAE0B90A90F61F757335BD983BFB43535513FDE5033E5FFEE63300D07CD7F7E3F1490080C3008005C002E0D400C0D18FAA2F009E0EC0F107E5535BC0D3366001F021000FF6E4AC3FC3F050FDAB91BA35D7B82914A1543EF1AFC28FEA5F7B5C0A4CACC758ABDA02
310
D0B89A1E40F7A12BD9BF2060A8061BFFB4053AB42E0700A41BB030DF78612B09839D374DE1720040F15AB45CE08DCAF3F2009497DBD0AE1888B0FD6F9DEE9E04B50B40FFF06465DB70B79A896FC547B00080FB03C0FFD79947603C31D00170E74AF02D00EE86C0F659E001C7CD6DAD1E7ADE5EB468D1A2458B162D5AB468D1
310
A2458B162D5AB468D1A2458B162D5AB4E822F40F606E72220ED5FE620000000049454E44AE42608244AE4260828C5A3ADF4DFFC9E90ABFCEFEC9590B3FD4D49DBE5336C06F937F96C5FC3EFAFF2C54017E875BBB64961F5CF8B18AFFA5C8846F21FD3F9C6DFC0C13663507C606F80767686B6469CE261C0000000049454E44
310
AE4260828ABA3FE7EBF6B3EE0B7E98F89DA6056768E3873B7C9A485E9B69F8FE1862663EBF391826400A4F368A133A60E601CE3B764F6A845F16D56B7C923398F8AD8C3E96DBF9A250F863F43F7D9E3DFC9B18DE3A00DA64CDEB6DCABAF3F7815F333EAF44F3F79ECA278D00BEE8B1B366B3AF8A4B9E38BB786EBFBE24341F
310
24D5BC2AEEBF342E391F0A0249AFF8A2D1380FDA7106D038BD7FE187F5F7F9EDFD4E3E538C6C0E15E79C6A5879507380A7759783463D1B875EAC7BC113468E83A49A2AB2BFCE01CFF42EAF81A1970600CFF62E2F4195AF0058EA4C84D92DDFE0001EF7C23370F693BA9EB2AE4CF1DEFD9663CA019C5D5BE1219CF9A55CABFC
310
BB883832C03FC263BCCEA277971BD5AFEA7AA722D5FCE0EE391611BF2343EF82DB7B8B15BC3D141CFD85A23F2C16DE7E98FF8EBFA0FBF3F5DF00FFD9961CFF01CE140027BD33610D0000000049454E44AE426082
  0
ENDSEC
  0
EOF
