  0
SECTION
  2
HEADER
  9
$ACADVER
  1
AC1027
  9
$ACADMAINTVER
 70
    83
  9
$DWGCODEPAGE
  3
ANSI_1252
  9
$LASTSAVEDBY
  1
chadclouser
  9
$REQUIREDVERSIONS
160
                 0
  9
$INSBASE
 10
0.0
 20
0.0
 30
0.0
  9
$EXTMIN
 10
240.6333021027244
 20
-34.16654556747661
 30
0.0
  9
$EXTMAX
 10
275.4937950276051
 20
7.629071138488972
 30
0.0
  9
$LIMMIN
 10
0.0
 20
0.0
  9
$LIMMAX
 10
12.0
 20
9.0
  9
$ORTHOMODE
 70
     1
  9
$REGENMODE
 70
     1
  9
$FILLMODE
 70
     1
  9
$QTEXTMODE
 70
     0
  9
$MIRRTEXT
 70
     0
  9
$LTSCALE
 40
1.0
  9
$ATTMODE
 70
     1
  9
$TEXTSIZE
 40
12.10402048440558
  9
$TRACEWID
 40
0.05
  9
$TEXTSTYLE
  7
Standard
  9
$CLAYER
  8
HI Lateral
  9
$CELTYPE
  6
ByLayer
  9
$CECOLOR
 62
   256
  9
$CELTSCALE
 40
1.0
  9
$DISPSILH
 70
     0
  9
$DIMSCALE
 40
1.0
  9
$DIMASZ
 40
1.0
  9
$DIMEXO
 40
0.05
  9
$DIMDLI
 40
0.505
  9
$DIMRND
 40
0.0
  9
$DIMDLE
 40
0.675
  9
$DIMEXE
 40
0.675
  9
$DIMTP
 40
0.0
  9
$DIMTM
 40
0.0
  9
$DIMTXT
 40
1.0
  9
$DIMCEN
 40
0.09
  9
$DIMTSZ
 40
0.0
  9
$DIMTOL
 70
     0
  9
$DIMLIM
 70
     0
  9
$DIMTIH
 70
     0
  9
$DIMTOH
 70
     0
  9
$DIMSE1
 70
     0
  9
$DIMSE2
 70
     0
  9
$DIMTAD
 70
     0
  9
$DIMZIN
 70
     3
  9
$DIMBLK
  1
ARCHTICK
  9
$DIMASO
 70
     1
  9
$DIMSHO
 70
     1
  9
$DIMPOST
  1

  9
$DIMAPOST
  1

  9
$DIMALT
 70
     0
  9
$DIMALTD
 70
     2
  9
$DIMALTF
 40
25.4
  9
$DIMLFAC
 40
0.9999999999999998
  9
$DIMTOFL
 70
     1
  9
$DIMTVP
 40
0.0
  9
$DIMTIX
 70
     0
  9
$DIMSOXD
 70
     0
  9
$DIMSAH
 70
     0
  9
$DIMBLK1
  1

  9
$DIMBLK2
  1

  9
$DIMSTYLE
  2
HUNTER-1.5INCH
  9
$DIMCLRD
 70
   256
  9
$DIMCLRE
 70
   256
  9
$DIMCLRT
 70
   256
  9
$DIMTFAC
 40
1.0
  9
$DIMGAP
 40
0.04
  9
$DIMJUST
 70
     0
  9
$DIMSD1
 70
     0
  9
$DIMSD2
 70
     0
  9
$DIMTOLJ
 70
     1
  9
$DIMTZIN
 70
     0
  9
$DIMALTZ
 70
     0
  9
$DIMALTTZ
 70
     0
  9
$DIMUPT
 70
     0
  9
$DIMDEC
 70
     0
  9
$DIMTDEC
 70
     0
  9
$DIMALTU
 70
     2
  9
$DIMALTTD
 70
     2
  9
$DIMTXSTY
  7
Hunter
  9
$DIMAUNIT
 70
     0
  9
$DIMADEC
 70
     0
  9
$DIMALTRND
 40
0.0
  9
$DIMAZIN
 70
     0
  9
$DIMDSEP
 70
    46
  9
$DIMATFIT
 70
     1
  9
$DIMFRAC
 70
     0
  9
$DIMLDRBLK
  1
Open90
  9
$DIMLUNIT
 70
     4
  9
$DIMLWD
 70
    -1
  9
$DIMLWE
 70
    -2
  9
$DIMTMOVE
 70
     2
  9
$DIMFXL
 40
1.0
  9
$DIMFXLON
 70
     0
  9
$DIMJOGANG
 40
0.7853981633974483
  9
$DIMTFILL
 70
     0
  9
$DIMTFILLCLR
 70
     0
  9
$DIMARCSYM
 70
     0
  9
$DIMLTYPE
  6

  9
$DIMLTEX1
  6

  9
$DIMLTEX2
  6

  9
$DIMTXTDIRECTION
 70
     0
  9
$LUNITS
 70
     4
  9
$LUPREC
 70
     4
  9
$SKETCHINC
 40
0.1
  9
$FILLETRAD
 40
0.0
  9
$AUNITS
 70
     0
  9
$AUPREC
 70
     2
  9
$MENU
  1
.
  9
$ELEVATION
 40
0.0
  9
$PELEVATION
 40
0.0
  9
$THICKNESS
 40
0.0
  9
$LIMCHECK
 70
     0
  9
$CHAMFERA
 40
0.0
  9
$CHAMFERB
 40
0.0
  9
$CHAMFERC
 40
0.0
  9
$CHAMFERD
 40
0.0
  9
$SKPOLY
 70
     0
  9
$TDCREATE
 40
2454770.393585949
  9
$TDUCREATE
 40
2454770.601919282
  9
$TDUPDATE
 40
2458066.626973576
  9
$TDUUPDATE
 40
2458066.835306910
  9
$TDINDWG
 40
96.5208077199
  9
$TDUSRTIMER
 40
96.5208075463
  9
$USRTIMER
 70
     1
  9
$ANGBASE
 50
0.0
  9
$ANGDIR
 70
     0
  9
$PDMODE
 70
     0
  9
$PDSIZE
 40
0.0
  9
$PLINEWID
 40
0.0
  9
$SPLFRAME
 70
     0
  9
$SPLINETYPE
 70
     6
  9
$SPLINESEGS
 70
     8
  9
$HANDSEED
  5
AE7F3
  9
$SURFTAB1
 70
     6
  9
$SURFTAB2
 70
     6
  9
$SURFTYPE
 70
     6
  9
$SURFU
 70
     6
  9
$SURFV
 70
     6
  9
$UCSBASE
  2

  9
$UCSNAME
  2

  9
$UCSORG
 10
0.0
 20
0.0
 30
0.0
  9
$UCSXDIR
 10
1.0
 20
0.0
 30
0.0
  9
$UCSYDIR
 10
0.0
 20
1.0
 30
0.0
  9
$UCSORTHOREF
  2

  9
$UCSORTHOVIEW
 70
     0
  9
$UCSORGTOP
 10
0.0
 20
0.0
 30
0.0
  9
$UCSORGBOTTOM
 10
0.0
 20
0.0
 30
0.0
  9
$UCSORGLEFT
 10
0.0
 20
0.0
 30
0.0
  9
$UCSORGRIGHT
 10
0.0
 20
0.0
 30
0.0
  9
$UCSORGFRONT
 10
0.0
 20
0.0
 30
0.0
  9
$UCSORGBACK
 10
0.0
 20
0.0
 30
0.0
  9
$PUCSBASE
  2

  9
$PUCSNAME
  2

  9
$PUCSORG
 10
0.0
 20
0.0
 30
0.0
  9
$PUCSXDIR
 10
1.0
 20
0.0
 30
0.0
  9
$PUCSYDIR
 10
0.0
 20
1.0
 30
0.0
  9
$PUCSORTHOREF
  2

  9
$PUCSORTHOVIEW
 70
     0
  9
$PUCSORGTOP
 10
0.0
 20
0.0
 30
0.0
  9
$PUCSORGBOTTOM
 10
0.0
 20
0.0
 30
0.0
  9
$PUCSORGLEFT
 10
0.0
 20
0.0
 30
0.0
  9
$PUCSORGRIGHT
 10
0.0
 20
0.0
 30
0.0
  9
$PUCSORGFRONT
 10
0.0
 20
0.0
 30
0.0
  9
$PUCSORGBACK
 10
0.0
 20
0.0
 30
0.0
  9
$USERI1
 70
     0
  9
$USERI2
 70
     0
  9
$USERI3
 70
     0
  9
$USERI4
 70
     0
  9
$USERI5
 70
     0
  9
$USERR1
 40
0.0
  9
$USERR2
 40
0.0
  9
$USERR3
 40
0.0
  9
$USERR4
 40
0.0
  9
$USERR5
 40
12.07090419886942
  9
$WORLDVIEW
 70
     1
  9
$SHADEDGE
 70
     3
  9
$SHADEDIF
 70
    70
  9
$TILEMODE
 70
     1
  9
$MAXACTVP
 70
    64
  9
$PINSBASE
 10
0.0
 20
0.0
 30
0.0
  9
$PLIMCHECK
 70
     0
  9
$PEXTMIN
 10
0.0459132722802274
 20
0.0401660391341245
 30
-0.0000000000000058
  9
$PEXTMAX
 10
8.005463741397988
 20
9.570500301888532
 30
0.0000000000000104
  9
$PLIMMIN
 10
-0.2281003861915408
 20
-0.7005413686196636
  9
$PLIMMAX
 10
8.271899373512569
 20
10.29945839108444
  9
$UNITMODE
 70
     0
  9
$VISRETAIN
 70
     1
  9
$PLINEGEN
 70
     0
  9
$PSLTSCALE
 70
     1
  9
$TREEDEPTH
 70
  3020
  9
$CMLSTYLE
  2
Standard
  9
$CMLJUST
 70
     1
  9
$CMLSCALE
 40
8.0
  9
$PROXYGRAPHICS
 70
     1
  9
$MEASUREMENT
 70
     0
  9
$CELWEIGHT
370
    -1
  9
$ENDCAPS
280
     0
  9
$JOINSTYLE
280
     0
  9
$LWDISPLAY
290
     0
  9
$INSUNITS
 70
     1
  9
$HYPERLINKBASE
  1

  9
$STYLESHEET
  1
Standard Pen Settings.ctb
  9
$XEDIT
290
     1
  9
$CEPSNTYPE
380
     0
  9
$PSTYLEMODE
290
     1
  9
$FINGERPRINTGUID
  2
{042633EE-7B2A-4DA3-9B1E-3D8485D08136}
  9
$VERSIONGUID
  2
{F59021E9-99C9-459B-B5E9-6C837E58816E}
  9
$EXTNAMES
290
     1
  9
$PSVPSCALE
 40
0.0
  9
$OLESTARTUP
290
     0
  9
$SORTENTS
280
   127
  9
$INDEXCTL
280
     0
  9
$HIDETEXT
280
     1
  9
$XCLIPFRAME
280
     0
  9
$HALOGAP
280
     0
  9
$OBSCOLOR
 70
   257
  9
$OBSLTYPE
280
     0
  9
$INTERSECTIONDISPLAY
280
     0
  9
$INTERSECTIONCOLOR
 70
   257
  9
$DIMASSOC
280
     2
  9
$PROJECTNAME
  1

  9
$CAMERADISPLAY
290
     0
  9
$LENSLENGTH
 40
50.0
  9
$CAMERAHEIGHT
 40
0.0
  9
$STEPSPERSEC
 40
2.0
  9
$STEPSIZE
 40
6.0
  9
$3DDWFPREC
 40
2.0
  9
$PSOLWIDTH
 40
0.25
  9
$PSOLHEIGHT
 40
4.0
  9
$LOFTANG1
 40
1.570796326794896
  9
$LOFTANG2
 40
1.570796326794896
  9
$LOFTMAG1
 40
0.0
  9
$LOFTMAG2
 40
0.0
  9
$LOFTPARAM
 70
     7
  9
$LOFTNORMALS
280
     1
  9
$LATITUDE
 40
37.795
  9
$LONGITUDE
 40
-122.394
  9
$NORTHDIRECTION
 40
0.0
  9
$TIMEZONE
 70
 -8000
  9
$LIGHTGLYPHDISPLAY
280
     1
  9
$TILEMODELIGHTSYNCH
280
     1
  9
$CMATERIAL
347
96
  9
$SOLIDHIST
280
     1
  9
$SHOWHIST
280
     1
  9
$DWFFRAME
280
     2
  9
$DGNFRAME
280
     0
  9
$REALWORLDSCALE
290
     1
  9
$INTERFERECOLOR
 62
     1
  9
$INTERFEREOBJVS
345
A3
  9
$INTERFEREVPVS
346
A0
  9
$CSHADOW
280
     0
  9
$SHADOWPLANELOCATION
 40
0.0
  0
ENDSEC
  0
SECTION
  2
CLASSES
  0
CLASS
  1
ACDBDICTIONARYWDFLT
  2
AcDbDictionaryWithDefault
  3
ObjectDBX Classes
 90
        0
 91
        1
280
     0
281
     0
  0
CLASS
  1
ACDBPLACEHOLDER
  2
AcDbPlaceHolder
  3
ObjectDBX Classes
 90
        0
 91
        1
280
     0
281
     0
  0
CLASS
  1
LAYOUT
  2
AcDbLayout
  3
ObjectDBX Classes
 90
        0
 91
        3
280
     0
281
     0
  0
CLASS
  1
DICTIONARYVAR
  2
AcDbDictionaryVar
  3
ObjectDBX Classes
 90
        0
 91
       13
280
     0
281
     0
  0
CLASS
  1
TABLESTYLE
  2
AcDbTableStyle
  3
ObjectDBX Classes
 90
     4095
 91
        1
280
     0
281
     0
  0
CLASS
  1
MATERIAL
  2
AcDbMaterial
  3
ObjectDBX Classes
 90
     1153
 91
        3
280
     0
281
     0
  0
CLASS
  1
VISUALSTYLE
  2
AcDbVisualStyle
  3
ObjectDBX Classes
 90
     4095
 91
       26
280
     0
281
     0
  0
CLASS
  1
EXACXREFPANELOBJECT
  2
ExAcXREFPanelObject
  3
EXAC_ESW
 90
     1025
 91
        0
280
     0
281
     0
  0
CLASS
  1
NPOCOLLECTION
  2
AcDbImpNonPersistentObjectsCollection
  3
ObjectDBX Classes
 90
     1153
 91
        0
280
     0
281
     0
  0
CLASS
  1
PLOTSETTINGS
  2
AcDbPlotSettings
  3
ObjectDBX Classes
 90
        0
 91
        6
280
     0
281
     0
  0
CLASS
  1
SORTENTSTABLE
  2
AcDbSortentsTable
  3
ObjectDBX Classes
 90
        0
 91
        1
280
     0
281
     0
  0
CLASS
  1
ACAD_EVALUATION_GRAPH
  2
AcDbEvalGraph
  3
ObjectDBX Classes
 90
     1153
 91
        0
280
     0
281
     0
  0
CLASS
  1
ACAECUSTOBJ
  2
AcAeEditorObj
  3
AcAeEditorObj
 90
     1024
 91
        0
280
     0
281
     0
  0
CLASS
  1
ACDB_DYNAMICBLOCKPURGEPREVENTER_VERSION
  2
AcDbDynamicBlockPurgePreventer
  3
ObjectDBX Classes
 90
     1153
 91
        0
280
     0
281
     0
  0
CLASS
  1
BLOCKVISIBILITYPARAMETER
  2
AcDbBlockVisibilityParameter
  3
ObjectDBX Classes
 90
     1153
 91
        0
280
     0
281
     0
  0
CLASS
  1
BLOCKVISIBILITYGRIP
  2
AcDbBlockVisibilityGrip
  3
ObjectDBX Classes
 90
     1153
 91
        0
280
     0
281
     0
  0
CLASS
  1
BLOCKGRIPLOCATIONCOMPONENT
  2
AcDbBlockGripExpr
  3
ObjectDBX Classes
 90
     1153
 91
        0
280
     0
281
     0
  0
CLASS
  1
ACDB_BLOCKREPRESENTATION_DATA
  2
AcDbBlockRepresentationData
  3
ObjectDBX Classes
 90
     1153
 91
        0
280
     0
281
     0
  0
CLASS
  1
BLOCKROTATIONPARAMETER
  2
AcDbBlockRotationParameter
  3
ObjectDBX Classes
 90
     1153
 91
        0
280
     0
281
     0
  0
CLASS
  1
BLOCKROTATIONGRIP
  2
AcDbBlockRotationGrip
  3
ObjectDBX Classes
 90
     1153
 91
        0
280
     0
281
     0
  0
CLASS
  1
BLOCKROTATEACTION
  2
AcDbBlockRotateAction
  3
ObjectDBX Classes
 90
     1153
 91
        0
280
     0
281
     0
  0
CLASS
  1
EXACTERMXREFMAP
  2
ExAcTermXrefMap
  3
EXAC_SERVICE
 90
     1025
 91
        0
280
     0
281
     0
  0
CLASS
  1
RASTERVARIABLES
  2
AcDbRasterVariables
  3
ISM
 90
        0
 91
        1
280
     0
281
     0
  0
CLASS
  1
SCALE
  2
AcDbScale
  3
ObjectDBX Classes
 90
     1153
 91
       37
280
     0
281
     0
  0
CLASS
  1
MLEADERSTYLE
  2
AcDbMLeaderStyle
  3
ACDB_MLEADERSTYLE_CLASS
 90
     4095
 91
        1
280
     0
281
     0
  0
CLASS
  1
CELLSTYLEMAP
  2
AcDbCellStyleMap
  3
ObjectDBX Classes
 90
     1152
 91
        1
280
     0
281
     0
  0
CLASS
  1
BLOCKLINEARPARAMETER
  2
AcDbBlockLinearParameter
  3
ObjectDBX Classes
 90
     1153
 91
        0
280
     0
281
     0
  0
CLASS
  1
BLOCKLINEARGRIP
  2
AcDbBlockLinearGrip
  3
ObjectDBX Classes
 90
     1153
 91
        0
280
     0
281
     0
  0
CLASS
  1
BLOCKSCALEACTION
  2
AcDbBlockScaleAction
  3
ObjectDBX Classes
 90
     1153
 91
        0
280
     0
281
     0
  0
CLASS
  1
WIPEOUT
  2
AcDbWipeout
  3
WipeOut|Product Desc: Object Enabler for WipeOut entity | Company: Autodesk, Inc. | WEB Address: www.autodesk.com
 90
     2175
 91
        0
280
     0
281
     1
  0
CLASS
  1
WIPEOUTVARIABLES
  2
AcDbWipeoutVariables
  3
"WipeOut|Product Desc:     WipeOut Dbx Application|Company:          Autodesk, Inc.|WEB Address:      www.autodesk.com"
 90
        0
 91
        1
280
     0
281
     0
  0
CLASS
  1
DIMASSOC
  2
AcDbDimAssoc
  3
"AcDbDimAssoc|Product Desc:     AcDim ARX App For Dimension|Company:          Autodesk, Inc.|WEB Address:      www.autodesk.com"
 90
        0
 91
        0
280
     0
281
     0
  0
CLASS
  1
AEC_REFEDIT_STATUS_TRACKER
  2
AecDbRefEditStatusTracker
  3
AecArchBase70|Product Desc: Autodesk Architectural Desktop 2007 |Company: Autodesk,Inc. |WEB Address: www.autodesk.com
 90
      129
 91
        0
280
     0
281
     0
  0
CLASS
  1
BLOCKPOLARPARAMETER
  2
AcDbBlockPolarParameter
  3
ObjectDBX Classes
 90
     1153
 91
        0
280
     0
281
     0
  0
CLASS
  1
BLOCKPOLARGRIP
  2
AcDbBlockPolarGrip
  3
ObjectDBX Classes
 90
     1153
 91
        0
280
     0
281
     0
  0
CLASS
  1
BLOCKSTRETCHACTION
  2
AcDbBlockStretchAction
  3
ObjectDBX Classes
 90
     1153
 91
        0
280
     0
281
     0
  0
CLASS
  1
BLOCKFLIPPARAMETER
  2
AcDbBlockFlipParameter
  3
ObjectDBX Classes
 90
     1153
 91
        0
280
     0
281
     0
  0
CLASS
  1
BLOCKFLIPGRIP
  2
AcDbBlockFlipGrip
  3
ObjectDBX Classes
 90
     1153
 91
        0
280
     0
281
     0
  0
CLASS
  1
BLOCKFLIPACTION
  2
AcDbBlockFlipAction
  3
ObjectDBX Classes
 90
     1153
 91
        0
280
     0
281
     0
  0
CLASS
  1
AEC_NOTIFICATION_TRACKER
  2
AecDbNotificationTracker
  3
AecBase70|Product Desc: Autodesk Architectural Desktop 2007 |Company: Autodesk,Inc. |WEB Address: www.autodesk.com
 90
      129
 91
        0
280
     0
281
     0
  0
CLASS
  1
ACDBSECTIONVIEWSTYLE
  2
AcDbSectionViewStyle
  3
ObjectDBX Classes
 90
     1025
 91
        1
280
     0
281
     0
  0
CLASS
  1
ACDBDETAILVIEWSTYLE
  2
AcDbDetailViewStyle
  3
ObjectDBX Classes
 90
     1025
 91
        1
280
     0
281
     0
  0
CLASS
  1
AEC_DISP_REP_ANCHOR_TAG_TO_ENT
  2
AecDbDispRepAnchorTagToEnt
  3
AecBase70|Product Desc: Autodesk Architectural Desktop 2007 |Company: Autodesk,Inc. |WEB Address: www.autodesk.com
 90
      129
 91
        1
280
     0
281
     0
  0
CLASS
  1
AEC_DISP_PROPS_ENT
  2
AecDbDispPropsEnt
  3
AecBase70|Product Desc: Autodesk Architectural Desktop 2007 |Company: Autodesk,Inc. |WEB Address: www.autodesk.com
 90
      129
 91
        7
280
     0
281
     0
  0
CLASS
  1
AEC_DISP_REP_2D_SECTION
  2
AecDbDispRep2dSection
  3
AecBase70|Product Desc: Autodesk Architectural Desktop 2007 |Company: Autodesk,Inc. |WEB Address: www.autodesk.com
 90
      129
 91
        1
280
     0
281
     0
  0
CLASS
  1
AEC_VARS_DWG_SETUP
  2
AecDbVarsDwgSetup
  3
AecBase70|Product Desc: Autodesk Architectural Desktop 2007 |Company: Autodesk,Inc. |WEB Address: www.autodesk.com
 90
      129
 91
        1
280
     0
281
     0
  0
CLASS
  1
AEC_DISP_PROPS_2D_SECTION
  2
AecDbDispProps2dSection
  3
AecBase70|Product Desc: Autodesk Architectural Desktop 2007 |Company: Autodesk,Inc. |WEB Address: www.autodesk.com
 90
      129
 91
        1
280
     0
281
     0
  0
CLASS
  1
AEC_DISP_REP_ANCHOR
  2
AecDbDispRepAnchor
  3
AecBase70|Product Desc: Autodesk Architectural Desktop 2007 |Company: Autodesk,Inc. |WEB Address: www.autodesk.com
 90
      129
 91
        1
280
     0
281
     0
  0
CLASS
  1
AEC_DISP_REP_ANCHOR_ENT_TO_NODE
  2
AecDbDispRepAnchorEntToNode
  3
AecBase70|Product Desc: Autodesk Architectural Desktop 2007 |Company: Autodesk,Inc. |WEB Address: www.autodesk.com
 90
      129
 91
        1
280
     0
281
     0
  0
CLASS
  1
AEC_DISP_REP_ANCHOR_EXT_TAG_TO_ENT
  2
AecDbDispRepAnchorExtendedTagToEnt
  3
AecBase70|Product Desc: Autodesk Architectural Desktop 2007 |Company: Autodesk,Inc. |WEB Address: www.autodesk.com
 90
      129
 91
        1
280
     0
281
     0
  0
CLASS
  1
AEC_DISP_REP_CLIP_VOLUME_MODEL
  2
AecDbDispRepClipVolModel
  3
AecBase70|Product Desc: Autodesk Architectural Desktop 2007 |Company: Autodesk,Inc. |WEB Address: www.autodesk.com
 90
      129
 91
        1
280
     0
281
     0
  0
CLASS
  1
AEC_DISP_PROPS_CLIP_VOLUME
  2
AecDbDispPropsClipVol
  3
AecBase70|Product Desc: Autodesk Architectural Desktop 2007 |Company: Autodesk,Inc. |WEB Address: www.autodesk.com
 90
      129
 91
       12
280
     0
281
     0
  0
CLASS
  1
AEC_DISP_REP_LAYOUT_GRID2D
  2
AecDbDispRepLayoutGrid2d
  3
AecBase70|Product Desc: Autodesk Architectural Desktop 2007 |Company: Autodesk,Inc. |WEB Address: www.autodesk.com
 90
      129
 91
        1
280
     0
281
     0
  0
CLASS
  1
AEC_DISP_PROPS_LAYOUT_GRID2D
  2
AecDbDispPropsLayoutGrid2d
  3
AecBase70|Product Desc: Autodesk Architectural Desktop 2007 |Company: Autodesk,Inc. |WEB Address: www.autodesk.com
 90
      129
 91
       11
280
     0
281
     0
  0
CLASS
  1
AEC_DISP_REP_EDITINPLACEPROFILE
  2
AecDbDispRepEditInPlaceProfile
  3
AecBase70|Product Desc: Autodesk Architectural Desktop 2007 |Company: Autodesk,Inc. |WEB Address: www.autodesk.com
 90
      129
 91
        1
280
     0
281
     0
  0
CLASS
  1
AEC_DISP_PROPS_EDITINPLACEPROFILE_MODEL
  2
AecDbDispPropsEditInPlaceProfile
  3
AecBase70|Product Desc: Autodesk Architectural Desktop 2007 |Company: Autodesk,Inc. |WEB Address: www.autodesk.com
 90
      129
 91
        1
280
     0
281
     0
  0
CLASS
  1
AEC_DISP_REP_CLIP_VOLUME_PLAN
  2
AecDbDispRepClipVolPlan
  3
AecBase70|Product Desc: Autodesk Architectural Desktop 2007 |Company: Autodesk,Inc. |WEB Address: www.autodesk.com
 90
      129
 91
        1
280
     0
281
     0
  0
CLASS
  1
AEC_DISP_REP_ENT_REF
  2
AecDbDispRepEntRef
  3
AecBase70|Product Desc: Autodesk Architectural Desktop 2007 |Company: Autodesk,Inc. |WEB Address: www.autodesk.com
 90
      129
 91
        1
280
     0
281
     0
  0
CLASS
  1
AEC_DISP_PROPS_ENT_REF
  2
AecDbDispPropsEntRef
  3
AecBase70|Product Desc: Autodesk Architectural Desktop 2007 |Company: Autodesk,Inc. |WEB Address: www.autodesk.com
 90
      129
 91
        1
280
     0
281
     0
  0
CLASS
  1
AEC_DISP_REP_LAYOUT_CURVE
  2
AecDbDispRepLayoutCurve
  3
AecBase70|Product Desc: Autodesk Architectural Desktop 2007 |Company: Autodesk,Inc. |WEB Address: www.autodesk.com
 90
      129
 91
        1
280
     0
281
     0
  0
CLASS
  1
AEC_DISP_PROPS_LAYOUT_CURVE
  2
AecDbDispPropsLayoutCurve
  3
AecBase70|Product Desc: Autodesk Architectural Desktop 2007 |Company: Autodesk,Inc. |WEB Address: www.autodesk.com
 90
      129
 91
        1
280
     0
281
     0
  0
CLASS
  1
AEC_DISP_REP_CLIP_VOLUME_RESULT_SUBDIV
  2
AecDbDispRepClipVolResSubDiv
  3
AecBase70|Product Desc: Autodesk Architectural Desktop 2007 |Company: Autodesk,Inc. |WEB Address: www.autodesk.com
 90
      129
 91
        1
280
     0
281
     0
  0
CLASS
  1
AEC_DISP_PROPS_CLIP_VOLUME_RESULT
  2
AecDbDispPropsClipVolResSubDiv
  3
AecBase70|Product Desc: Autodesk Architectural Desktop 2007 |Company: Autodesk,Inc. |WEB Address: www.autodesk.com
 90
      129
 91
        2
280
     0
281
     0
  0
CLASS
  1
AEC_DISP_REP_LAYOUT_GRID3D
  2
AecDbDispRepLayoutGrid3d
  3
AecBase70|Product Desc: Autodesk Architectural Desktop 2007 |Company: Autodesk,Inc. |WEB Address: www.autodesk.com
 90
      129
 91
        1
280
     0
281
     0
  0
CLASS
  1
AEC_DISP_PROPS_LAYOUT_GRID3D
  2
AecDbDispPropsLayoutGrid3d
  3
AecBase70|Product Desc: Autodesk Architectural Desktop 2007 |Company: Autodesk,Inc. |WEB Address: www.autodesk.com
 90
      129
 91
        1
280
     0
281
     0
  0
CLASS
  1
AEC_DISP_REP_MVBLOCK_REF_MODEL
  2
AecDbDispRepMvBlockRefModel
  3
AecBase70|Product Desc: Autodesk Architectural Desktop 2007 |Company: Autodesk,Inc. |WEB Address: www.autodesk.com
 90
      129
 91
        1
280
     0
281
     0
  0
CLASS
  1
AEC_DISP_REP_MASKBLOCK_REF
  2
AecDbDispRepMaskBlockRef
  3
AecBase70|Product Desc: Autodesk Architectural Desktop 2007 |Company: Autodesk,Inc. |WEB Address: www.autodesk.com
 90
      129
 91
        1
280
     0
281
     0
  0
CLASS
  1
AEC_DISP_PROPS_MASKBLOCK
  2
AecDbDispPropsMaskBlock
  3
AecBase70|Product Desc: Autodesk Architectural Desktop 2007 |Company: Autodesk,Inc. |WEB Address: www.autodesk.com
 90
      129
 91
        2
280
     0
281
     0
  0
CLASS
  1
AEC_DISP_REP_CLIP_VOLUME_RESULT
  2
AecDbDispRepClipVolResult
  3
AecBase70|Product Desc: Autodesk Architectural Desktop 2007 |Company: Autodesk,Inc. |WEB Address: www.autodesk.com
 90
      129
 91
        1
280
     0
281
     0
  0
CLASS
  1
AEC_DISP_REP_MVBLOCK_REF
  2
AecDbDispRepMvBlockRef
  3
AecBase70|Product Desc: Autodesk Architectural Desktop 2007 |Company: Autodesk,Inc. |WEB Address: www.autodesk.com
 90
      129
 91
        2
280
     0
281
     0
  0
CLASS
  1
AEC_DISP_REP_POLYGON_MODEL
  2
AecDbDispRepPolygonModel
  3
AecBase70|Product Desc: Autodesk Architectural Desktop 2007 |Company: Autodesk,Inc. |WEB Address: www.autodesk.com
 90
      129
 91
        1
280
     0
281
     0
  0
CLASS
  1
AEC_DISP_PROPS_POLYGON_MODEL
  2
AecDbDispPropsPolygonModel
  3
AecBase70|Product Desc: Autodesk Architectural Desktop 2007 |Company: Autodesk,Inc. |WEB Address: www.autodesk.com
 90
      129
 91
        1
280
     0
281
     0
  0
CLASS
  1
AEC_DISP_REP_POLYGON_TRUECOLOUR
  2
AecDbDispRepPolygonTrueColour
  3
AecBase70|Product Desc: Autodesk Architectural Desktop 2007 |Company: Autodesk,Inc. |WEB Address: www.autodesk.com
 90
      129
 91
        1
280
     0
281
     0
  0
CLASS
  1
AEC_DISP_PROPS_POLYGON_TRUECOLOUR
  2
AecDbDispPropsPolygonTrueColour
  3
AecBase70|Product Desc: Autodesk Architectural Desktop 2007 |Company: Autodesk,Inc. |WEB Address: www.autodesk.com
 90
      129
 91
        1
280
     0
281
     0
  0
CLASS
  1
AEC_DISP_REP_MATERIAL
  2
AecDbDispRepMaterial
  3
AecBase70|Product Desc: Autodesk Architectural Desktop 2007 |Company: Autodesk,Inc. |WEB Address: www.autodesk.com
 90
      129
 91
        2
280
     0
281
     0
  0
CLASS
  1
AEC_DISP_PROPS_MATERIAL
  2
AecDbDispPropsMaterial
  3
AecBase70|Product Desc: Autodesk Architectural Desktop 2007 |Company: Autodesk,Inc. |WEB Address: www.autodesk.com
 90
      129
 91
        2
280
     0
281
     0
  0
CLASS
  1
AEC_DISP_REP_DISPLAYTHEME
  2
AecDbDispRepDisplayTheme
  3
AecBase70|Product Desc: Autodesk Architectural Desktop 2007 |Company: Autodesk,Inc. |WEB Address: www.autodesk.com
 90
      129
 91
        1
280
     0
281
     0
  0
CLASS
  1
AEC_DISP_PROPS_DISPLAYTHEME
  2
AecDbDispPropsDisplayTheme
  3
AecBase70|Product Desc: Autodesk Architectural Desktop 2007 |Company: Autodesk,Inc. |WEB Address: www.autodesk.com
 90
      129
 91
        1
280
     0
281
     0
  0
CLASS
  1
AEC_DISP_REP_SLICE
  2
AecDbDispRepSlice
  3
AecBase70|Product Desc: Autodesk Architectural Desktop 2007 |Company: Autodesk,Inc. |WEB Address: www.autodesk.com
 90
      129
 91
        1
280
     0
281
     0
  0
CLASS
  1
AEC_DISP_PROPS_SLICE
  2
AecDbDispPropsSlice
  3
AecBase70|Product Desc: Autodesk Architectural Desktop 2007 |Company: Autodesk,Inc. |WEB Address: www.autodesk.com
 90
      129
 91
        1
280
     0
281
     0
  0
CLASS
  1
AEC_DISP_REP_MASS_ELEM_SCHEM
  2
AecDbDispRepMassElemSchem
  3
AecBaseEx70|Product Desc: Autodesk Architectural Desktop 2007 |Company: Autodesk,Inc. |WEB Address: www.autodesk.com
 90
      129
 91
        1
280
     0
281
     0
  0
CLASS
  1
AEC_DISP_PROPS_MASS_ELEM_MODEL
  2
AecDbDispPropsMassElem
  3
AecBaseEx70|Product Desc: Autodesk Architectural Desktop 2007 |Company: Autodesk,Inc. |WEB Address: www.autodesk.com
 90
      129
 91
        3
280
     0
281
     0
  0
CLASS
  1
AEC_DISP_REP_MASS_GROUP_PLAN
  2
AecDbDispRepMassGroupPlan
  3
AecBaseEx70|Product Desc: Autodesk Architectural Desktop 2007 |Company: Autodesk,Inc. |WEB Address: www.autodesk.com
 90
      129
 91
        1
280
     0
281
     0
  0
CLASS
  1
AEC_DISP_PROPS_MASS_GROUP
  2
AecDbDispPropsMassGroup
  3
AecBaseEx70|Product Desc: Autodesk Architectural Desktop 2007 |Company: Autodesk,Inc. |WEB Address: www.autodesk.com
 90
      129
 91
        3
280
     0
281
     0
  0
CLASS
  1
AEC_DISP_REP_MASS_GROUP_MODEL
  2
AecDbDispRepMassGroupModel
  3
AecBaseEx70|Product Desc: Autodesk Architectural Desktop 2007 |Company: Autodesk,Inc. |WEB Address: www.autodesk.com
 90
      129
 91
        1
280
     0
281
     0
  0
CLASS
  1
AEC_DISP_REP_MASS_ELEM_MODEL
  2
AecDbDispRepMassElemModel
  3
AecBaseEx70|Product Desc: Autodesk Architectural Desktop 2007 |Company: Autodesk,Inc. |WEB Address: www.autodesk.com
 90
      129
 91
        1
280
     0
281
     0
  0
CLASS
  1
AEC_DISP_REP_WINDOW_ELEV
  2
AecDbDispRepWindowElev
  3
AecArchBase70|Product Desc: Autodesk Architectural Desktop 2007 |Company: Autodesk,Inc. |WEB Address: www.autodesk.com
 90
      129
 91
        1
280
     0
281
     0
  0
CLASS
  1
AEC_DISP_PROPS_WINDOW
  2
AecDbDispPropsWindow
  3
AecArchBase70|Product Desc: Autodesk Architectural Desktop 2007 |Company: Autodesk,Inc. |WEB Address: www.autodesk.com
 90
      129
 91
        4
280
     0
281
     0
  0
CLASS
  1
AEC_DISP_REP_WALL_MODEL
  2
AecDbDispRepWallModel
  3
AecArchBase70|Product Desc: Autodesk Architectural Desktop 2007 |Company: Autodesk,Inc. |WEB Address: www.autodesk.com
 90
      129
 91
        1
280
     0
281
     0
  0
CLASS
  1
AEC_DISP_PROPS_WALL_MODEL
  2
AecDbDispPropsWallModel
  3
AecArchBase70|Product Desc: Autodesk Architectural Desktop 2007 |Company: Autodesk,Inc. |WEB Address: www.autodesk.com
 90
      129
 91
        1
280
     0
281
     0
  0
CLASS
  1
AEC_DISP_REP_WINDOW_PLAN_50
  2
AecDbDispRepWindowPlan50
  3
AecArchBase70|Product Desc: Autodesk Architectural Desktop 2007 |Company: Autodesk,Inc. |WEB Address: www.autodesk.com
 90
      129
 91
        1
280
     0
281
     0
  0
CLASS
  1
AEC_DISP_PROPS_WINDOW_PLAN_50
  2
AecDbDispPropsWindowPlan50
  3
AecArchBase70|Product Desc: Autodesk Architectural Desktop 2007 |Company: Autodesk,Inc. |WEB Address: www.autodesk.com
 90
      129
 91
        1
280
     0
281
     0
  0
CLASS
  1
AEC_DISP_REP_WALL_RCP
  2
AecDbDispRepWallRcp
  3
AecArchBase70|Product Desc: Autodesk Architectural Desktop 2007 |Company: Autodesk,Inc. |WEB Address: www.autodesk.com
 90
      129
 91
        1
280
     0
281
     0
  0
CLASS
  1
AEC_DISP_PROPS_WALL_PLAN
  2
AecDbDispPropsWallPlan
  3
AecArchBase70|Product Desc: Autodesk Architectural Desktop 2007 |Company: Autodesk,Inc. |WEB Address: www.autodesk.com
 90
      129
 91
        4
280
     0
281
     0
  0
CLASS
  1
AEC_DISP_REP_WINDOW_PLAN
  2
AecDbDispRepWindowPlan
  3
AecArchBase70|Product Desc: Autodesk Architectural Desktop 2007 |Company: Autodesk,Inc. |WEB Address: www.autodesk.com
 90
      129
 91
        1
280
     0
281
     0
  0
CLASS
  1
AEC_DISP_REP_WINDOW_PLAN_100
  2
AecDbDispRepWindowPlan100
  3
AecArchBase70|Product Desc: Autodesk Architectural Desktop 2007 |Company: Autodesk,Inc. |WEB Address: www.autodesk.com
 90
      129
 91
        1
280
     0
281
     0
  0
CLASS
  1
AEC_DISP_PROPS_WINDOW_PLAN_100
  2
AecDbDispPropsWindowPlan100
  3
AecArchBase70|Product Desc: Autodesk Architectural Desktop 2007 |Company: Autodesk,Inc. |WEB Address: www.autodesk.com
 90
      129
 91
        1
280
     0
281
     0
  0
CLASS
  1
AEC_DISP_REP_WINDOW_SILL_PLAN
  2
AecDbDispRepWindowSillPlan
  3
AecArchBase70|Product Desc: Autodesk Architectural Desktop 2007 |Company: Autodesk,Inc. |WEB Address: www.autodesk.com
 90
      129
 91
        1
280
     0
281
     0
  0
CLASS
  1
AEC_DISP_PROPS_WINDOW_SILL_PLAN
  2
AecDbDispPropsWindowSillPlan
  3
AecArchBase70|Product Desc: Autodesk Architectural Desktop 2007 |Company: Autodesk,Inc. |WEB Address: www.autodesk.com
 90
      129
 91
        1
280
     0
281
     0
  0
CLASS
  1
AEC_DISP_REP_WINDOW_MODEL
  2
AecDbDispRepWindowModel
  3
AecArchBase70|Product Desc: Autodesk Architectural Desktop 2007 |Company: Autodesk,Inc. |WEB Address: www.autodesk.com
 90
      129
 91
        1
280
     0
281
     0
  0
CLASS
  1
AEC_DISP_REP_STAIR_RCP
  2
AecDbDispRepStairRcp
  3
AecArchBase70|Product Desc: Autodesk Architectural Desktop 2007 |Company: Autodesk,Inc. |WEB Address: www.autodesk.com
 90
      129
 91
        1
280
     0
281
     0
  0
CLASS
  1
AEC_DISP_PROPS_STAIR_PLAN
  2
AecDbDispPropsStairPlan
  3
AecArchBase70|Product Desc: Autodesk Architectural Desktop 2007 |Company: Autodesk,Inc. |WEB Address: www.autodesk.com
 90
      129
 91
        2
280
     0
281
     0
  0
CLASS
  1
AEC_DISP_REP_STAIR_PLAN_OVERLAPPING
  2
AecDbDispRepStairPlanOverlapping
  3
AecArchBase70|Product Desc: Autodesk Architectural Desktop 2007 |Company: Autodesk,Inc. |WEB Address: www.autodesk.com
 90
      129
 91
        1
280
     0
281
     0
  0
CLASS
  1
AEC_DISP_PROPS_STAIR_PLAN_OVERLAPPING
  2
AecDbDispPropsStairPlanOverlapping
  3
AecArchBase70|Product Desc: Autodesk Architectural Desktop 2007 |Company: Autodesk,Inc. |WEB Address: www.autodesk.com
 90
      129
 91
        1
280
     0
281
     0
  0
CLASS
  1
AEC_DISP_REP_WINDOWASSEMBLY_SILL_PLAN
  2
AecDbDispRepWindowAssemblySillPlan
  3
AecArchBase70|Product Desc: Autodesk Architectural Desktop 2007 |Company: Autodesk,Inc. |WEB Address: www.autodesk.com
 90
      129
 91
        1
280
     0
281
     0
  0
CLASS
  1
AEC_DISP_PROPS_WINDOW_ASSEMBLY_SILL_PLAN
  2
AecDbDispPropsWindowAssemblySillPlan
  3
AecArchBase70|Product Desc: Autodesk Architectural Desktop 2007 |Company: Autodesk,Inc. |WEB Address: www.autodesk.com
 90
      129
 91
        1
280
     0
281
     0
  0
CLASS
  1
AEC_DISP_REP_WALL_GRAPH
  2
AecDbDispRepWallGraph
  3
AecArchBase70|Product Desc: Autodesk Architectural Desktop 2007 |Company: Autodesk,Inc. |WEB Address: www.autodesk.com
 90
      129
 91
        1
280
     0
281
     0
  0
CLASS
  1
AEC_DISP_PROPS_WALL_GRAPH
  2
AecDbDispPropsWallGraph
  3
AecArchBase70|Product Desc: Autodesk Architectural Desktop 2007 |Company: Autodesk,Inc. |WEB Address: www.autodesk.com
 90
      129
 91
        1
280
     0
281
     0
  0
CLASS
  1
AEC_DISP_REP_WALL_SCHEM
  2
AecDbDispRepWallSchem
  3
AecArchBase70|Product Desc: Autodesk Architectural Desktop 2007 |Company: Autodesk,Inc. |WEB Address: www.autodesk.com
 90
      129
 91
        1
280
     0
281
     0
  0
CLASS
  1
AEC_DISP_PROPS_WALL_SCHEM
  2
AecDbDispPropsWallSchem
  3
AecArchBase70|Product Desc: Autodesk Architectural Desktop 2007 |Company: Autodesk,Inc. |WEB Address: www.autodesk.com
 90
      129
 91
        1
280
     0
281
     0
  0
CLASS
  1
AEC_DISP_REP_WINDOW_ASSEMBLY_MODEL
  2
AecDbDispRepWindowAssemblyModel
  3
AecArchBase70|Product Desc: Autodesk Architectural Desktop 2007 |Company: Autodesk,Inc. |WEB Address: www.autodesk.com
 90
      129
 91
        1
280
     0
281
     0
  0
CLASS
  1
AEC_DISP_PROPS_GRID_ASSEMBLY_MODEL
  2
AecDbDispPropsGridAssemblyModel
  3
AecArchBase70|Product Desc: Autodesk Architectural Desktop 2007 |Company: Autodesk,Inc. |WEB Address: www.autodesk.com
 90
      129
 91
        3
280
     0
281
     0
  0
CLASS
  1
AEC_DISP_REP_WINDOW_RCP
  2
AecDbDispRepWindowRcp
  3
AecArchBase70|Product Desc: Autodesk Architectural Desktop 2007 |Company: Autodesk,Inc. |WEB Address: www.autodesk.com
 90
      129
 91
        1
280
     0
281
     0
  0
CLASS
  1
AEC_DISP_REP_WINDOW_NOMINAL
  2
AecDbDispRepWindowNominal
  3
AecArchBase70|Product Desc: Autodesk Architectural Desktop 2007 |Company: Autodesk,Inc. |WEB Address: www.autodesk.com
 90
      129
 91
        1
280
     0
281
     0
  0
CLASS
  1
AEC_DISP_PROPS_WINDOW_NOMINAL
  2
AecDbDispPropsWindowNominal
  3
AecArchBase70|Product Desc: Autodesk Architectural Desktop 2007 |Company: Autodesk,Inc. |WEB Address: www.autodesk.com
 90
      129
 91
        1
280
     0
281
     0
  0
CLASS
  1
AEC_DISP_REP_BDG_SECTIONLINE_PLAN
  2
AecDbDispRepBdgElevLinePlan
  3
AecArchBase70|Product Desc: Autodesk Architectural Desktop 2007 |Company: Autodesk,Inc. |WEB Address: www.autodesk.com
 90
      129
 91
        1
280
     0
281
     0
  0
CLASS
  1
AEC_AECDBDISPREPCEILINGGRIDPLAN100
  2
AecDbDispRepCeilingGridPlan100
  3
AecArchBase70|Product Desc: Autodesk Architectural Desktop 2007 |Company: Autodesk,Inc. |WEB Address: www.autodesk.com
 90
      129
 91
        1
280
     0
281
     0
  0
CLASS
  1
AEC_AECDBDISPREPBDGELEVLINEPLAN100
  2
AecDbDispRepBdgElevLinePlan100
  3
AecArchBase70|Product Desc: Autodesk Architectural Desktop 2007 |Company: Autodesk,Inc. |WEB Address: www.autodesk.com
 90
      129
 91
        1
280
     0
281
     0
  0
CLASS
  1
AEC_AECDBDISPREPBDGSECTIONLINEPLAN100
  2
AecDbDispRepBdgSectionLinePlan100
  3
AecArchBase70|Product Desc: Autodesk Architectural Desktop 2007 |Company: Autodesk,Inc. |WEB Address: www.autodesk.com
 90
      129
 91
        1
280
     0
281
     0
  0
CLASS
  1
AEC_DISP_REP_CURTAIN_WALL_LAYOUT_PLAN
  2
AecDbDispRepCurtainWallLayoutPlan
  3
AecArchBase70|Product Desc: Autodesk Architectural Desktop 2007 |Company: Autodesk,Inc. |WEB Address: www.autodesk.com
 90
      129
 91
        1
280
     0
281
     0
  0
CLASS
  1
AEC_DISP_PROPS_GRID_ASSEMBLY_PLAN
  2
AecDbDispPropsGridAssemblyPlan
  3
AecArchBase70|Product Desc: Autodesk Architectural Desktop 2007 |Company: Autodesk,Inc. |WEB Address: www.autodesk.com
 90
      129
 91
        9
280
     0
281
     0
  0
CLASS
  1
AEC_DISP_REP_CEILING_GRID
  2
AecDbDispRepCeilingGrid
  3
AecArchBase70|Product Desc: Autodesk Architectural Desktop 2007 |Company: Autodesk,Inc. |WEB Address: www.autodesk.com
 90
      893
 91
        1
280
     0
281
     0
  0
CLASS
  1
AEC_AECDBDISPREPCOLUMNGRIDPLAN100
  2
AecDbDispRepColumnGridPlan100
  3
AecArchBase70|Product Desc: Autodesk Architectural Desktop 2007 |Company: Autodesk,Inc. |WEB Address: www.autodesk.com
 90
      129
 91
        1
280
     0
281
     0
  0
CLASS
  1
AEC_DISP_REP_CURTAIN_WALL_UNIT_PLAN
  2
AecDbDispRepCurtainWallUnitPlan
  3
AecArchBase70|Product Desc: Autodesk Architectural Desktop 2007 |Company: Autodesk,Inc. |WEB Address: www.autodesk.com
 90
      129
 91
        1
280
     0
281
     0
  0
CLASS
  1
AEC_AECDBDISPREPCURTAINWALLUNITPLAN100
  2
AecDbDispRepCurtainWallUnitPlan100
  3
AecArchBase70|Product Desc: Autodesk Architectural Desktop 2007 |Company: Autodesk,Inc. |WEB Address: www.autodesk.com
 90
      129
 91
        1
280
     0
281
     0
  0
CLASS
  1
AEC_DISP_REP_BDG_SECTIONLINE_PLAN
  2
AecDbDispRepBdgSectionLinePlan
  3
AecArchBase70|Product Desc: Autodesk Architectural Desktop 2007 |Company: Autodesk,Inc. |WEB Address: www.autodesk.com
 90
      129
 91
        1
280
     0
281
     0
  0
CLASS
  1
AEC_DISP_REP_COLUMN_GRID
  2
AecDbDispRepColumnGrid
  3
AecArchBase70|Product Desc: Autodesk Architectural Desktop 2007 |Company: Autodesk,Inc. |WEB Address: www.autodesk.com
 90
      129
 91
        1
280
     0
281
     0
  0
CLASS
  1
AEC_AECDBDISPREPCURTAINWALLLAYOUTPLAN100
  2
AecDbDispRepCurtainWallLayoutPlan100
  3
AecArchBase70|Product Desc: Autodesk Architectural Desktop 2007 |Company: Autodesk,Inc. |WEB Address: www.autodesk.com
 90
      129
 91
        1
280
     0
281
     0
  0
CLASS
  1
AEC_AECDBDISPREPMVBLOCKREFPLAN100
  2
AecDbDispRepMvBlockRefPlan100
  3
AecArchBase70|Product Desc: Autodesk Architectural Desktop 2007 |Company: Autodesk,Inc. |WEB Address: www.autodesk.com
 90
      129
 91
        1
280
     0
281
     0
  0
CLASS
  1
AEC_DISP_REP_ROOFSLAB_PLAN
  2
AecDbDispRepRoofSlabPlan
  3
AecArchBase70|Product Desc: Autodesk Architectural Desktop 2007 |Company: Autodesk,Inc. |WEB Address: www.autodesk.com
 90
      129
 91
        1
280
     0
281
     0
  0
CLASS
  1
AEC_DISP_PROPS_ROOFSLAB_PLAN
  2
AecDbDispPropsRoofSlabPlan
  3
AecArchBase70|Product Desc: Autodesk Architectural Desktop 2007 |Company: Autodesk,Inc. |WEB Address: www.autodesk.com
 90
      129
 91
        3
280
     0
281
     0
  0
CLASS
  1
AEC_DISP_REP_ROOF_PLAN
  2
AecDbDispRepRoofPlan
  3
AecArchBase70|Product Desc: Autodesk Architectural Desktop 2007 |Company: Autodesk,Inc. |WEB Address: www.autodesk.com
 90
      129
 91
        1
280
     0
281
     0
  0
CLASS
  1
AEC_DISP_PROPS_ROOF
  2
AecDbDispPropsRoof
  3
AecArchBase70|Product Desc: Autodesk Architectural Desktop 2007 |Company: Autodesk,Inc. |WEB Address: www.autodesk.com
 90
      129
 91
        5
280
     0
281
     0
  0
CLASS
  1
AEC_AECDBDISPREPSLABPLAN100
  2
AecDbDispRepSlabPlan100
  3
AecArchBase70|Product Desc: Autodesk Architectural Desktop 2007 |Company: Autodesk,Inc. |WEB Address: www.autodesk.com
 90
      129
 91
        1
280
     0
281
     0
  0
CLASS
  1
AEC_DISP_PROPS_SLAB_PLAN
  2
AecDbDispPropsSlabPlan
  3
AecArchBase70|Product Desc: Autodesk Architectural Desktop 2007 |Company: Autodesk,Inc. |WEB Address: www.autodesk.com
 90
      129
 91
        3
280
     0
281
     0
  0
CLASS
  1
AEC_DISP_REP_SPACE_PLAN
  2
AecDbDispRepSpacePlan
  3
AecArchBase70|Product Desc: Autodesk Architectural Desktop 2007 |Company: Autodesk,Inc. |WEB Address: www.autodesk.com
 90
      129
 91
        1
280
     0
281
     0
  0
CLASS
  1
AEC_DISP_PROPS_SPACE_PLAN
  2
AecDbDispPropsSpacePlan
  3
AecArchBase70|Product Desc: Autodesk Architectural Desktop 2007 |Company: Autodesk,Inc. |WEB Address: www.autodesk.com
 90
      129
 91
        4
280
     0
281
     0
  0
CLASS
  1
AEC_AECDBDISPREPROOFSLABPLAN100
  2
AecDbDispRepRoofSlabPlan100
  3
AecArchBase70|Product Desc: Autodesk Architectural Desktop 2007 |Company: Autodesk,Inc. |WEB Address: www.autodesk.com
 90
      129
 91
        1
280
     0
281
     0
  0
CLASS
  1
AEC_AECDBDISPREPSPACEPLAN100
  2
AecDbDispRepSpacePlan100
  3
AecArchBase70|Product Desc: Autodesk Architectural Desktop 2007 |Company: Autodesk,Inc. |WEB Address: www.autodesk.com
 90
      129
 91
        1
280
     0
281
     0
  0
CLASS
  1
AEC_AECDBDISPREPWALLPLAN100
  2
AecDbDispRepWallPlan100
  3
AecArchBase70|Product Desc: Autodesk Architectural Desktop 2007 |Company: Autodesk,Inc. |WEB Address: www.autodesk.com
 90
      129
 91
        1
280
     0
281
     0
  0
CLASS
  1
AEC_DISP_REP_SLAB_PLAN
  2
AecDbDispRepSlabPlan
  3
AecArchBase70|Product Desc: Autodesk Architectural Desktop 2007 |Company: Autodesk,Inc. |WEB Address: www.autodesk.com
 90
      129
 91
        1
280
     0
281
     0
  0
CLASS
  1
AEC_DISP_REP_WALL_PLAN
  2
AecDbDispRepWallPlan
  3
AecArchBase70|Product Desc: Autodesk Architectural Desktop 2007 |Company: Autodesk,Inc. |WEB Address: www.autodesk.com
 90
      129
 91
        1
280
     0
281
     0
  0
CLASS
  1
AEC_AECDBDISPREPROOFPLAN100
  2
AecDbDispRepRoofPlan100
  3
AecArchBase70|Product Desc: Autodesk Architectural Desktop 2007 |Company: Autodesk,Inc. |WEB Address: www.autodesk.com
 90
      129
 91
        1
280
     0
281
     0
  0
CLASS
  1
AEC_AECDBDISPREPZONE100
  2
AecDbDispRepZonePlan100
  3
AecArchBase70|Product Desc: Autodesk Architectural Desktop 2007 |Company: Autodesk,Inc. |WEB Address: www.autodesk.com
 90
      129
 91
        1
280
     0
281
     0
  0
CLASS
  1
AEC_DISP_PROPS_ZONE
  2
AecDbDispPropsZone
  3
AecArchBase70|Product Desc: Autodesk Architectural Desktop 2007 |Company: Autodesk,Inc. |WEB Address: www.autodesk.com
 90
      129
 91
        3
280
     0
281
     0
  0
CLASS
  1
AEC_DISP_REP_ZONE
  2
AecDbDispRepZone
  3
AecArchBase70|Product Desc: Autodesk Architectural Desktop 2007 |Company: Autodesk,Inc. |WEB Address: www.autodesk.com
 90
      129
 91
        1
280
     0
281
     0
  0
CLASS
  1
AEC_AECDBDISPREPCURTAINWALLUNITPLAN50
  2
AecDbDispRepCurtainWallUnitPlan50
  3
AecArchBase70|Product Desc: Autodesk Architectural Desktop 2007 |Company: Autodesk,Inc. |WEB Address: www.autodesk.com
 90
      129
 91
        1
280
     0
281
     0
  0
CLASS
  1
AEC_AECDBDISPREPCOLUMNGRIDPLAN50
  2
AecDbDispRepColumnGridPlan50
  3
AecArchBase70|Product Desc: Autodesk Architectural Desktop 2007 |Company: Autodesk,Inc. |WEB Address: www.autodesk.com
 90
      129
 91
        1
280
     0
281
     0
  0
CLASS
  1
AEC_AECDBDISPREPBDGSECTIONLINEPLAN50
  2
AecDbDispRepBdgSectionLinePlan50
  3
AecArchBase70|Product Desc: Autodesk Architectural Desktop 2007 |Company: Autodesk,Inc. |WEB Address: www.autodesk.com
 90
      129
 91
        1
280
     0
281
     0
  0
CLASS
  1
AEC_AECDBDISPREPMVBLOCKREFPLAN50
  2
AecDbDispRepMvBlockRefPlan50
  3
AecArchBase70|Product Desc: Autodesk Architectural Desktop 2007 |Company: Autodesk,Inc. |WEB Address: www.autodesk.com
 90
      129
 91
        1
280
     0
281
     0
  0
CLASS
  1
AEC_DISP_REP_WINDOW_ASSEMBLY_PLAN
  2
AecDbDispRepWindowAssemblyPlan
  3
AecArchBase70|Product Desc: Autodesk Architectural Desktop 2007 |Company: Autodesk,Inc. |WEB Address: www.autodesk.com
 90
      129
 91
        1
280
     0
281
     0
  0
CLASS
  1
AEC_AECDBDISPREPWINDOWASSEMBLYPLAN100
  2
AecDbDispRepWindowAssemblyPlan100
  3
AecArchBase70|Product Desc: Autodesk Architectural Desktop 2007 |Company: Autodesk,Inc. |WEB Address: www.autodesk.com
 90
      129
 91
        1
280
     0
281
     0
  0
CLASS
  1
AEC_AECDBDISPREPCEILINGGRIDPLAN50
  2
AecDbDispRepCeilingGridPlan50
  3
AecArchBase70|Product Desc: Autodesk Architectural Desktop 2007 |Company: Autodesk,Inc. |WEB Address: www.autodesk.com
 90
      129
 91
        1
280
     0
281
     0
  0
CLASS
  1
AEC_AECDBDISPREPROOFPLAN50
  2
AecDbDispRepRoofPlan50
  3
AecArchBase70|Product Desc: Autodesk Architectural Desktop 2007 |Company: Autodesk,Inc. |WEB Address: www.autodesk.com
 90
      129
 91
        1
280
     0
281
     0
  0
CLASS
  1
AEC_AECDBDISPREPSLABPLAN50
  2
AecDbDispRepSlabPlan50
  3
AecArchBase70|Product Desc: Autodesk Architectural Desktop 2007 |Company: Autodesk,Inc. |WEB Address: www.autodesk.com
 90
      129
 91
        1
280
     0
281
     0
  0
CLASS
  1
AEC_AECDBDISPREPBDGELEVLINEPLAN50
  2
AecDbDispRepBdgElevLinePlan50
  3
AecArchBase70|Product Desc: Autodesk Architectural Desktop 2007 |Company: Autodesk,Inc. |WEB Address: www.autodesk.com
 90
      129
 91
        1
280
     0
281
     0
  0
CLASS
  1
AEC_AECDBDISPREPCURTAINWALLLAYOUTPLAN50
  2
AecDbDispRepCurtainWallLayoutPlan50
  3
AecArchBase70|Product Desc: Autodesk Architectural Desktop 2007 |Company: Autodesk,Inc. |WEB Address: www.autodesk.com
 90
      129
 91
        1
280
     0
281
     0
  0
CLASS
  1
AEC_AECDBDISPREPROOFSLABPLAN50
  2
AecDbDispRepRoofSlabPlan50
  3
AecArchBase70|Product Desc: Autodesk Architectural Desktop 2007 |Company: Autodesk,Inc. |WEB Address: www.autodesk.com
 90
      129
 91
        1
280
     0
281
     0
  0
CLASS
  1
AEC_AECDBDISPREPWALLPLAN50
  2
AecDbDispRepWallPlan50
  3
AecArchBase70|Product Desc: Autodesk Architectural Desktop 2007 |Company: Autodesk,Inc. |WEB Address: www.autodesk.com
 90
      129
 91
        1
280
     0
281
     0
  0
CLASS
  1
AEC_AECDBDISPREPSPACEPLAN50
  2
AecDbDispRepSpacePlan50
  3
AecArchBase70|Product Desc: Autodesk Architectural Desktop 2007 |Company: Autodesk,Inc. |WEB Address: www.autodesk.com
 90
      129
 91
        1
280
     0
281
     0
  0
CLASS
  1
AEC_AECDBDISPREPZONE50
  2
AecDbDispRepZonePlan50
  3
AecArchBase70|Product Desc: Autodesk Architectural Desktop 2007 |Company: Autodesk,Inc. |WEB Address: www.autodesk.com
 90
      129
 91
        1
280
     0
281
     0
  0
CLASS
  1
AEC_AECDBDISPREPWINDOWASSEMBLYPLAN50
  2
AecDbDispRepWindowAssemblyPlan50
  3
AecArchBase70|Product Desc: Autodesk Architectural Desktop 2007 |Company: Autodesk,Inc. |WEB Address: www.autodesk.com
 90
      129
 91
        1
280
     0
281
     0
  0
CLASS
  1
AEC_DISP_REP_ANCHOR_BUB_TO_GRID
  2
AecDbDispRepAnchorBubToGrid
  3
AecArchBase70|Product Desc: Autodesk Architectural Desktop 2007 |Company: Autodesk,Inc. |WEB Address: www.autodesk.com
 90
      129
 91
        1
280
     0
281
     0
  0
CLASS
  1
AEC_DISP_REP_CEILING_GRID_RCP
  2
AecDbDispRepCeilingGridRcp
  3
AecArchBase70|Product Desc: Autodesk Architectural Desktop 2007 |Company: Autodesk,Inc. |WEB Address: www.autodesk.com
 90
      129
 91
        1
280
     0
281
     0
  0
CLASS
  1
AEC_DISP_REP_ANCHOR_BUB_TO_GRID_RCP
  2
AecDbDispRepAnchorBubToGridRcp
  3
AecArchBase70|Product Desc: Autodesk Architectural Desktop 2007 |Company: Autodesk,Inc. |WEB Address: www.autodesk.com
 90
      129
 91
        1
280
     0
281
     0
  0
CLASS
  1
AEC_DISP_REP_CURTAIN_WALL_UNIT_MODEL
  2
AecDbDispRepCurtainWallUnitModel
  3
AecArchBase70|Product Desc: Autodesk Architectural Desktop 2007 |Company: Autodesk,Inc. |WEB Address: www.autodesk.com
 90
      129
 91
        1
280
     0
281
     0
  0
CLASS
  1
AEC_DB_DISP_REP_DIM_GROUP_PLAN100
  2
AecDbDispRepDimGroupPlan100
  3
AecArchBase70|Product Desc: Autodesk Architectural Desktop 2007 |Company: Autodesk,Inc. |WEB Address: www.autodesk.com
 90
      129
 91
        1
280
     0
281
     0
  0
CLASS
  1
AEC_DISP_PROPS_DIM
  2
AecDbDispPropsDimGroup
  3
AecArchBase70|Product Desc: Autodesk Architectural Desktop 2007 |Company: Autodesk,Inc. |WEB Address: www.autodesk.com
 90
      129
 91
        3
280
     0
281
     0
  0
CLASS
  1
AEC_DISP_REP_BDG_ELEVLINE_RCP
  2
AecDbDispRepBdgElevLineRcp
  3
AecArchBase70|Product Desc: Autodesk Architectural Desktop 2007 |Company: Autodesk,Inc. |WEB Address: www.autodesk.com
 90
      129
 91
        1
280
     0
281
     0
  0
CLASS
  1
AEC_DISP_REP_BDG_SECTION_MODEL
  2
AecDbDispRepBdgSectionModel
  3
AecArchBase70|Product Desc: Autodesk Architectural Desktop 2007 |Company: Autodesk,Inc. |WEB Address: www.autodesk.com
 90
      129
 91
        1
280
     0
281
     0
  0
CLASS
  1
AEC_DISP_REP_BDG_SECTION_SUBDIV
  2
AecDbDispRepBdgSectionSubDiv
  3
AecArchBase70|Product Desc: Autodesk Architectural Desktop 2007 |Company: Autodesk,Inc. |WEB Address: www.autodesk.com
 90
      129
 91
        1
280
     0
281
     0
  0
CLASS
  1
AEC_DISP_REP_CEILING_GRID_MODEL
  2
AecDbDispRepCeilingGridModel
  3
AecArchBase70|Product Desc: Autodesk Architectural Desktop 2007 |Company: Autodesk,Inc. |WEB Address: www.autodesk.com
 90
      129
 91
        1
280
     0
281
     0
  0
CLASS
  1
AEC_DISP_REP_BDG_SECTIONLINE_MODEL
  2
AecDbDispRepBdgSectionLineModel
  3
AecArchBase70|Product Desc: Autodesk Architectural Desktop 2007 |Company: Autodesk,Inc. |WEB Address: www.autodesk.com
 90
      129
 91
        1
280
     0
281
     0
  0
CLASS
  1
AEC_DISP_REP_COLUMN_GRID_MODEL
  2
AecDbDispRepColumnGridModel
  3
AecArchBase70|Product Desc: Autodesk Architectural Desktop 2007 |Company: Autodesk,Inc. |WEB Address: www.autodesk.com
 90
      129
 91
        1
280
     0
281
     0
  0
CLASS
  1
AEC_DISP_REP_COLUMN_GRID_RCP
  2
AecDbDispRepColumnGridRcp
  3
AecArchBase70|Product Desc: Autodesk Architectural Desktop 2007 |Company: Autodesk,Inc. |WEB Address: www.autodesk.com
 90
      129
 91
        1
280
     0
281
     0
  0
CLASS
  1
AEC_DISP_REP_BDG_SECTIONLINE_RCP
  2
AecDbDispRepBdgSectionLineRcp
  3
AecArchBase70|Product Desc: Autodesk Architectural Desktop 2007 |Company: Autodesk,Inc. |WEB Address: www.autodesk.com
 90
      129
 91
        1
280
     0
281
     0
  0
CLASS
  1
AEC_DISP_REP_BDG_ELEVLINE_MODEL
  2
AecDbDispRepBdgElevLineModel
  3
AecArchBase70|Product Desc: Autodesk Architectural Desktop 2007 |Company: Autodesk,Inc. |WEB Address: www.autodesk.com
 90
      129
 91
        1
280
     0
281
     0
  0
CLASS
  1
AEC_DISP_REP_CURTAIN_WALL_LAYOUT_MODEL
  2
AecDbDispRepCurtainWallLayoutModel
  3
AecArchBase70|Product Desc: Autodesk Architectural Desktop 2007 |Company: Autodesk,Inc. |WEB Address: www.autodesk.com
 90
      129
 91
        1
280
     0
281
     0
  0
CLASS
  1
AEC_DISP_REP_ANCHOR_BUB_TO_GRID_MODEL
  2
AecDbDispRepAnchorBubToGridMdl
  3
AecArchBase70|Product Desc: Autodesk Architectural Desktop 2007 |Company: Autodesk,Inc. |WEB Address: www.autodesk.com
 90
      129
 91
        1
280
     0
281
     0
  0
CLASS
  1
AEC_DISP_REP_DOOR_THRESHOLD_SYMBOL_PLAN
  2
AecDbDispRepDoorThresholdSymbolPlan
  3
AecArchBase70|Product Desc: Autodesk Architectural Desktop 2007 |Company: Autodesk,Inc. |WEB Address: www.autodesk.com
 90
      129
 91
        1
280
     0
281
     0
  0
CLASS
  1
AEC_DISP_PROPS_DOOR_THRESHOLD_SYMBOL_PLAN
  2
AecDbDispPropsDoorThresholdSymbolPlan
  3
AecArchBase70|Product Desc: Autodesk Architectural Desktop 2007 |Company: Autodesk,Inc. |WEB Address: www.autodesk.com
 90
      129
 91
        1
280
     0
281
     0
  0
CLASS
  1
AEC_DISP_REP_DOOR_PLAN_HEKTO
  2
AecDbDispRepDoorPlanHekto
  3
AecArchBase70|Product Desc: Autodesk Architectural Desktop 2007 |Company: Autodesk,Inc. |WEB Address: www.autodesk.com
 90
      129
 91
        1
280
     0
281
     0
  0
CLASS
  1
AEC_DISP_PROPS_DOOR_PLAN_100
  2
AecDbDispPropsDoorPlan100
  3
AecArchBase70|Product Desc: Autodesk Architectural Desktop 2007 |Company: Autodesk,Inc. |WEB Address: www.autodesk.com
 90
      129
 91
        1
280
     0
281
     0
  0
CLASS
  1
AEC_DISPREPAECDBDISPREPMASSGROUPPLAN50
  2
AecDbDispRepMassGroupPlan50
  3
AecArchBase70|Product Desc: Autodesk Architectural Desktop 2007 |Company: Autodesk,Inc. |WEB Address: www.autodesk.com
 90
      129
 91
        1
280
     0
281
     0
  0
CLASS
  1
AEC_DISPROPSMASSGROUPPLANCOMMON
  2
AecDbDispPropsMassGroupPlanCommon
  3
AecArchBase70|Product Desc: Autodesk Architectural Desktop 2007 |Company: Autodesk,Inc. |WEB Address: www.autodesk.com
 90
      129
 91
        2
280
     0
281
     0
  0
CLASS
  1
AEC_DISP_REP_MASS_GROUP_RCP
  2
AecDbDispRepMassGroupRcp
  3
AecArchBase70|Product Desc: Autodesk Architectural Desktop 2007 |Company: Autodesk,Inc. |WEB Address: www.autodesk.com
 90
      129
 91
        1
280
     0
281
     0
  0
CLASS
  1
AEC_DB_DISP_REP_DIM_GROUP_PLAN50
  2
AecDbDispRepDimGroupPlan50
  3
AecArchBase70|Product Desc: Autodesk Architectural Desktop 2007 |Company: Autodesk,Inc. |WEB Address: www.autodesk.com
 90
      129
 91
        1
280
     0
281
     0
  0
CLASS
  1
AEC_DISP_REP_DOOR_MODEL
  2
AecDbDispRepDoorModel
  3
AecArchBase70|Product Desc: Autodesk Architectural Desktop 2007 |Company: Autodesk,Inc. |WEB Address: www.autodesk.com
 90
      129
 91
        1
280
     0
281
     0
  0
CLASS
  1
AEC_DISP_PROPS_DOOR
  2
AecDbDispPropsDoor
  3
AecArchBase70|Product Desc: Autodesk Architectural Desktop 2007 |Company: Autodesk,Inc. |WEB Address: www.autodesk.com
 90
      129
 91
        4
280
     0
281
     0
  0
CLASS
  1
AEC_DISP_REP_DOOR_PLAN_50
  2
AecDbDispRepDoorPlan50
  3
AecArchBase70|Product Desc: Autodesk Architectural Desktop 2007 |Company: Autodesk,Inc. |WEB Address: www.autodesk.com
 90
      129
 91
        1
280
     0
281
     0
  0
CLASS
  1
AEC_DISP_PROPS_DOOR_PLAN_50
  2
AecDbDispPropsDoorPlan50
  3
AecArchBase70|Product Desc: Autodesk Architectural Desktop 2007 |Company: Autodesk,Inc. |WEB Address: www.autodesk.com
 90
      129
 91
        1
280
     0
281
     0
  0
CLASS
  1
AEC_DISP_REP_DOOR_THRESHOLD_PLAN
  2
AecDbDispRepDoorThresholdPlan
  3
AecArchBase70|Product Desc: Autodesk Architectural Desktop 2007 |Company: Autodesk,Inc. |WEB Address: www.autodesk.com
 90
      129
 91
        1
280
     0
281
     0
  0
CLASS
  1
AEC_DISP_PROPS_DOOR_THRESHOLD_PLAN
  2
AecDbDispPropsDoorThresholdPlan
  3
AecArchBase70|Product Desc: Autodesk Architectural Desktop 2007 |Company: Autodesk,Inc. |WEB Address: www.autodesk.com
 90
      129
 91
        1
280
     0
281
     0
  0
CLASS
  1
AEC_DISP_REP_MASKBLOCK_REF_RCP
  2
AecDbDispRepMaskBlockRefRcp
  3
AecArchBase70|Product Desc: Autodesk Architectural Desktop 2007 |Company: Autodesk,Inc. |WEB Address: www.autodesk.com
 90
      129
 91
        1
280
     0
281
     0
  0
CLASS
  1
AEC_DISP_REP_DOOR_ELEV
  2
AecDbDispRepDoorElev
  3
AecArchBase70|Product Desc: Autodesk Architectural Desktop 2007 |Company: Autodesk,Inc. |WEB Address: www.autodesk.com
 90
      129
 91
        1
280
     0
281
     0
  0
CLASS
  1
AEC_DISPREPAECDBDISPREPMASSELEMPLAN50
  2
AecDbDispRepMassElemPlan50
  3
AecArchBase70|Product Desc: Autodesk Architectural Desktop 2007 |Company: Autodesk,Inc. |WEB Address: www.autodesk.com
 90
      129
 91
        1
280
     0
281
     0
  0
CLASS
  1
AEC_DISPROPSMASSELEMPLANCOMMON
  2
AecDbDispPropsMassElemPlanCommon
  3
AecArchBase70|Product Desc: Autodesk Architectural Desktop 2007 |Company: Autodesk,Inc. |WEB Address: www.autodesk.com
 90
      129
 91
        2
280
     0
281
     0
  0
CLASS
  1
AEC_DISP_REP_DOOR_NOMINAL
  2
AecDbDispRepDoorNominal
  3
AecArchBase70|Product Desc: Autodesk Architectural Desktop 2007 |Company: Autodesk,Inc. |WEB Address: www.autodesk.com
 90
      129
 91
        1
280
     0
281
     0
  0
CLASS
  1
AEC_DISP_PROPS_DOOR_NOMINAL
  2
AecDbDispPropsDoorNominal
  3
AecArchBase70|Product Desc: Autodesk Architectural Desktop 2007 |Company: Autodesk,Inc. |WEB Address: www.autodesk.com
 90
      129
 91
        1
280
     0
281
     0
  0
CLASS
  1
AEC_DISPREPAECDBDISPREPMASSELEMPLAN100
  2
AecDbDispRepMassElemPlan100
  3
AecArchBase70|Product Desc: Autodesk Architectural Desktop 2007 |Company: Autodesk,Inc. |WEB Address: www.autodesk.com
 90
      129
 91
        1
280
     0
281
     0
  0
CLASS
  1
AEC_DISP_REP_MASS_ELEM_RCP
  2
AecDbDispRepMassElemRcp
  3
AecArchBase70|Product Desc: Autodesk Architectural Desktop 2007 |Company: Autodesk,Inc. |WEB Address: www.autodesk.com
 90
      129
 91
        1
280
     0
281
     0
  0
CLASS
  1
AEC_DISP_REP_DOOR_PLAN
  2
AecDbDispRepDoorPlan
  3
AecArchBase70|Product Desc: Autodesk Architectural Desktop 2007 |Company: Autodesk,Inc. |WEB Address: www.autodesk.com
 90
      129
 91
        1
280
     0
281
     0
  0
CLASS
  1
AEC_DISP_REP_DOOR_RCP
  2
AecDbDispRepDoorRcp
  3
AecArchBase70|Product Desc: Autodesk Architectural Desktop 2007 |Company: Autodesk,Inc. |WEB Address: www.autodesk.com
 90
      129
 91
        1
280
     0
281
     0
  0
CLASS
  1
AEC_DISPREPAECDBDISPREPMASSGROUPPLAN100
  2
AecDbDispRepMassGroupPlan100
  3
AecArchBase70|Product Desc: Autodesk Architectural Desktop 2007 |Company: Autodesk,Inc. |WEB Address: www.autodesk.com
 90
      129
 91
        1
280
     0
281
     0
  0
CLASS
  1
AEC_DB_DISP_REP_DIM_GROUP_PLAN
  2
AecDbDispRepDimGroupPlan
  3
AecArchBase70|Product Desc: Autodesk Architectural Desktop 2007 |Company: Autodesk,Inc. |WEB Address: www.autodesk.com
 90
      129
 91
        1
280
     0
281
     0
  0
CLASS
  1
AEC_DISP_REP_OPENING_MODEL
  2
AecDbDispRepOpeningModel
  3
AecArchBase70|Product Desc: Autodesk Architectural Desktop 2007 |Company: Autodesk,Inc. |WEB Address: www.autodesk.com
 90
      129
 91
        1
280
     0
281
     0
  0
CLASS
  1
AEC_DISP_PROPS_OPENING
  2
AecDbDispPropsOpening
  3
AecArchBase70|Product Desc: Autodesk Architectural Desktop 2007 |Company: Autodesk,Inc. |WEB Address: www.autodesk.com
 90
      129
 91
        2
280
     0
281
     0
  0
CLASS
  1
AEC_DISPREPAECDBDISPREPOPENINGPLAN50
  2
AecDbDispRepOpeningPlan50
  3
AecArchBase70|Product Desc: Autodesk Architectural Desktop 2007 |Company: Autodesk,Inc. |WEB Address: www.autodesk.com
 90
      129
 91
        1
280
     0
281
     0
  0
CLASS
  1
AEC_DISPROPSOPENINGPLANCOMMONHATCHED
  2
AecDbDispPropsOpeningPlanCommonHatched
  3
AecArchBase70|Product Desc: Autodesk Architectural Desktop 2007 |Company: Autodesk,Inc. |WEB Address: www.autodesk.com
 90
      129
 91
        2
280
     0
281
     0
  0
CLASS
  1
AEC_DISPREPAECDBDISPREPOPENINGPLANREFLECTED
  2
AecDbDispRepOpeningPlanReflected
  3
AecArchBase70|Product Desc: Autodesk Architectural Desktop 2007 |Company: Autodesk,Inc. |WEB Address: www.autodesk.com
 90
      129
 91
        1
280
     0
281
     0
  0
CLASS
  1
AEC_DISPROPSOPENINGPLANCOMMON
  2
AecDbDispPropsOpeningPlanCommon
  3
AecArchBase70|Product Desc: Autodesk Architectural Desktop 2007 |Company: Autodesk,Inc. |WEB Address: www.autodesk.com
 90
      129
 91
        1
280
     0
281
     0
  0
CLASS
  1
AEC_DISP_REP_OPENING
  2
AecDbDispRepOpening
  3
AecArchBase70|Product Desc: Autodesk Architectural Desktop 2007 |Company: Autodesk,Inc. |WEB Address: www.autodesk.com
 90
      129
 91
        1
280
     0
281
     0
  0
CLASS
  1
AEC_DISP_REP_MVBLOCK_REF_RCP
  2
AecDbDispRepMvBlockRefRcp
  3
AecArchBase70|Product Desc: Autodesk Architectural Desktop 2007 |Company: Autodesk,Inc. |WEB Address: www.autodesk.com
 90
      129
 91
        1
280
     0
281
     0
  0
CLASS
  1
AEC_DISPREPAECDBDISPREPOPENINGPLAN100
  2
AecDbDispRepOpeningPlan100
  3
AecArchBase70|Product Desc: Autodesk Architectural Desktop 2007 |Company: Autodesk,Inc. |WEB Address: www.autodesk.com
 90
      129
 91
        1
280
     0
281
     0
  0
CLASS
  1
AEC_DISPREPAECDBDISPREPOPENINGSILLPLAN
  2
AecDbDispRepOpeningSillPlan
  3
AecArchBase70|Product Desc: Autodesk Architectural Desktop 2007 |Company: Autodesk,Inc. |WEB Address: www.autodesk.com
 90
      129
 91
        1
280
     0
281
     0
  0
CLASS
  1
AEC_DISPROPSOPENINGSILLPLAN
  2
AecDbDispPropsOpeningSillPlan
  3
AecArchBase70|Product Desc: Autodesk Architectural Desktop 2007 |Company: Autodesk,Inc. |WEB Address: www.autodesk.com
 90
      129
 91
        1
280
     0
281
     0
  0
CLASS
  1
AEC_DISP_REP_RAILING_PLAN
  2
AecDbDispRepRailingPlan
  3
AecArchBase70|Product Desc: Autodesk Architectural Desktop 2007 |Company: Autodesk,Inc. |WEB Address: www.autodesk.com
 90
      129
 91
        1
280
     0
281
     0
  0
CLASS
  1
AEC_DISP_PROPS_RAILING_PLAN
  2
AecDbDispPropsRailingPlan
  3
AecArchBase70|Product Desc: Autodesk Architectural Desktop 2007 |Company: Autodesk,Inc. |WEB Address: www.autodesk.com
 90
      129
 91
        1
280
     0
281
     0
  0
CLASS
  1
AEC_DISP_REP_ROOF_MODEL
  2
AecDbDispRepRoofModel
  3
AecArchBase70|Product Desc: Autodesk Architectural Desktop 2007 |Company: Autodesk,Inc. |WEB Address: www.autodesk.com
 90
      129
 91
        1
280
     0
281
     0
  0
CLASS
  1
AEC_DISP_REP_ROOF_RCP
  2
AecDbDispRepRoofRcp
  3
AecArchBase70|Product Desc: Autodesk Architectural Desktop 2007 |Company: Autodesk,Inc. |WEB Address: www.autodesk.com
 90
      129
 91
        1
280
     0
281
     0
  0
CLASS
  1
AEC_DISP_REP_RAILING_PLAN_100
  2
AecDbDispRepRailingPlan100
  3
AecArchBase70|Product Desc: Autodesk Architectural Desktop 2007 |Company: Autodesk,Inc. |WEB Address: www.autodesk.com
 90
      129
 91
        1
280
     0
281
     0
  0
CLASS
  1
AEC_DISP_ROPS_RAILING_PLAN_100
  2
AecDbDispPropsRailingPlan100
  3
AecArchBase70|Product Desc: Autodesk Architectural Desktop 2007 |Company: Autodesk,Inc. |WEB Address: www.autodesk.com
 90
      129
 91
        1
280
     0
281
     0
  0
CLASS
  1
AEC_DISP_REP_RAILING_PLAN_50
  2
AecDbDispRepRailingPlan50
  3
AecArchBase70|Product Desc: Autodesk Architectural Desktop 2007 |Company: Autodesk,Inc. |WEB Address: www.autodesk.com
 90
      129
 91
        1
280
     0
281
     0
  0
CLASS
  1
AEC_DISP_ROPS_RAILING_PLAN_50
  2
AecDbDispPropsRailingPlan50
  3
AecArchBase70|Product Desc: Autodesk Architectural Desktop 2007 |Company: Autodesk,Inc. |WEB Address: www.autodesk.com
 90
      129
 91
        1
280
     0
281
     0
  0
CLASS
  1
AEC_DISP_REP_RAILING_MODEL
  2
AecDbDispRepRailingModel
  3
AecArchBase70|Product Desc: Autodesk Architectural Desktop 2007 |Company: Autodesk,Inc. |WEB Address: www.autodesk.com
 90
      129
 91
        1
280
     0
281
     0
  0
CLASS
  1
AEC_DISP_PROPS_RAILING_MODEL
  2
AecDbDispPropsRailingModel
  3
AecArchBase70|Product Desc: Autodesk Architectural Desktop 2007 |Company: Autodesk,Inc. |WEB Address: www.autodesk.com
 90
      129
 91
        1
280
     0
281
     0
  0
CLASS
  1
AEC_DISP_REP_STAIR_MODEL
  2
AecDbDispRepStairModel
  3
AecArchBase70|Product Desc: Autodesk Architectural Desktop 2007 |Company: Autodesk,Inc. |WEB Address: www.autodesk.com
 90
      129
 91
        1
280
     0
281
     0
  0
CLASS
  1
AEC_DISP_PROPS_STAIR_MODEL
  2
AecDbDispPropsStairModel
  3
AecArchBase70|Product Desc: Autodesk Architectural Desktop 2007 |Company: Autodesk,Inc. |WEB Address: www.autodesk.com
 90
      129
 91
        1
280
     0
281
     0
  0
CLASS
  1
AEC_DISP_REP_STAIR_PLAN
  2
AecDbDispRepStairPlan
  3
AecArchBase70|Product Desc: Autodesk Architectural Desktop 2007 |Company: Autodesk,Inc. |WEB Address: www.autodesk.com
 90
      129
 91
        1
280
     0
281
     0
  0
CLASS
  1
AEC_DISP_REP_SPACE_RCP
  2
AecDbDispRepSpaceRcp
  3
AecArchBase70|Product Desc: Autodesk Architectural Desktop 2007 |Company: Autodesk,Inc. |WEB Address: www.autodesk.com
 90
      129
 91
        1
280
     0
281
     0
  0
CLASS
  1
AEC_DISP_REP_SPACE_DECOMPOSED
  2
AecDbDispRepSpaceDecomposed
  3
AecArchBase70|Product Desc: Autodesk Architectural Desktop 2007 |Company: Autodesk,Inc. |WEB Address: www.autodesk.com
 90
      129
 91
        1
280
     0
281
     0
  0
CLASS
  1
AEC_DISP_PROPS_SPACE_DECOMPOSED
  2
AecDbDispPropsSpaceDecomposed
  3
AecArchBase70|Product Desc: Autodesk Architectural Desktop 2007 |Company: Autodesk,Inc. |WEB Address: www.autodesk.com
 90
      129
 91
        1
280
     0
281
     0
  0
CLASS
  1
AEC_DISP_REP_ROOFSLAB_MODEL
  2
AecDbDispRepRoofSlabModel
  3
AecArchBase70|Product Desc: Autodesk Architectural Desktop 2007 |Company: Autodesk,Inc. |WEB Address: www.autodesk.com
 90
      129
 91
        1
280
     0
281
     0
  0
CLASS
  1
AEC_DISP_PROPS_ROOFSLAB
  2
AecDbDispPropsRoofSlab
  3
AecArchBase70|Product Desc: Autodesk Architectural Desktop 2007 |Company: Autodesk,Inc. |WEB Address: www.autodesk.com
 90
      129
 91
        1
280
     0
281
     0
  0
CLASS
  1
AEC_DISP_REP_STAIR_PLAN_100
  2
AecDbDispRepStairPlan100
  3
AecArchBase70|Product Desc: Autodesk Architectural Desktop 2007 |Company: Autodesk,Inc. |WEB Address: www.autodesk.com
 90
      129
 91
        1
280
     0
281
     0
  0
CLASS
  1
AEC_DISP_ROPS_STAIR_PLAN_100
  2
AecDbDispPropsStairPlan100
  3
AecArchBase70|Product Desc: Autodesk Architectural Desktop 2007 |Company: Autodesk,Inc. |WEB Address: www.autodesk.com
 90
      129
 91
        1
280
     0
281
     0
  0
CLASS
  1
AEC_DISP_REP_SPACE_MODEL
  2
AecDbDispRepSpaceModel
  3
AecArchBase70|Product Desc: Autodesk Architectural Desktop 2007 |Company: Autodesk,Inc. |WEB Address: www.autodesk.com
 90
      129
 91
        1
280
     0
281
     0
  0
CLASS
  1
AEC_DISP_PROPS_SPACE_MODEL
  2
AecDbDispPropsSpaceModel
  3
AecArchBase70|Product Desc: Autodesk Architectural Desktop 2007 |Company: Autodesk,Inc. |WEB Address: www.autodesk.com
 90
      129
 91
        1
280
     0
281
     0
  0
CLASS
  1
AEC_DISP_REP_SPACE_VOLUME
  2
AecDbDispRepSpaceVolume
  3
AecArchBase70|Product Desc: Autodesk Architectural Desktop 2007 |Company: Autodesk,Inc. |WEB Address: www.autodesk.com
 90
      129
 91
        1
280
     0
281
     0
  0
CLASS
  1
AEC_DISP_REP_STAIR_PLAN_50
  2
AecDbDispRepStairPlan50
  3
AecArchBase70|Product Desc: Autodesk Architectural Desktop 2007 |Company: Autodesk,Inc. |WEB Address: www.autodesk.com
 90
      129
 91
        1
280
     0
281
     0
  0
CLASS
  1
AEC_DISP_ROPS_STAIR_PLAN_50
  2
AecDbDispPropsStairPlan50
  3
AecArchBase70|Product Desc: Autodesk Architectural Desktop 2007 |Company: Autodesk,Inc. |WEB Address: www.autodesk.com
 90
      129
 91
        1
280
     0
281
     0
  0
CLASS
  1
AEC_DISP_REP_SLAB_MODEL
  2
AecDbDispRepSlabModel
  3
AecArchBase70|Product Desc: Autodesk Architectural Desktop 2007 |Company: Autodesk,Inc. |WEB Address: www.autodesk.com
 90
      129
 91
        1
280
     0
281
     0
  0
CLASS
  1
AEC_DISP_PROPS_SLAB
  2
AecDbDispPropsSlab
  3
AecArchBase70|Product Desc: Autodesk Architectural Desktop 2007 |Company: Autodesk,Inc. |WEB Address: www.autodesk.com
 90
      129
 91
        1
280
     0
281
     0
  0
CLASS
  1
AECS_DISP_REP_MEMBER_MODEL_DETAIL
  2
AecsDbDispRepMemberModelDetail
  3
AecArchBase70|Product Desc: Autodesk Architectural Desktop 2007 |Company: Autodesk,Inc. |WEB Address: www.autodesk.com
 90
      129
 91
        1
280
     0
281
     0
  0
CLASS
  1
AECS_DISP_PROPS_MEMBER
  2
AecsDbDispPropsMember
  3
AecArchBase70|Product Desc: Autodesk Architectural Desktop 2007 |Company: Autodesk,Inc. |WEB Address: www.autodesk.com
 90
      129
 91
        2
280
     0
281
     0
  0
CLASS
  1
AECS_DISP_REP_MEMBER_LOGICAL
  2
AecsDbDispRepMemberLogical
  3
AecArchBase70|Product Desc: Autodesk Architectural Desktop 2007 |Company: Autodesk,Inc. |WEB Address: www.autodesk.com
 90
      129
 91
        1
280
     0
281
     0
  0
CLASS
  1
AECS_DISP_PROPS_MEMBER_LOGICAL
  2
AecsDbDispPropsMemberLogical
  3
AecArchBase70|Product Desc: Autodesk Architectural Desktop 2007 |Company: Autodesk,Inc. |WEB Address: www.autodesk.com
 90
      129
 91
        1
280
     0
281
     0
  0
CLASS
  1
AECS_DISP_REP_MEMBER_ELEVATION_DETAIL
  2
AecsDbDispRepMemberElevationDetail
  3
AecArchBase70|Product Desc: Autodesk Architectural Desktop 2007 |Company: Autodesk,Inc. |WEB Address: www.autodesk.com
 90
      129
 91
        1
280
     0
281
     0
  0
CLASS
  1
AECS_DISP_PROPS_MEMBER_PROJECTED
  2
AecsDbDispPropsMemberProjected
  3
AecArchBase70|Product Desc: Autodesk Architectural Desktop 2007 |Company: Autodesk,Inc. |WEB Address: www.autodesk.com
 90
      129
 91
        2
280
     0
281
     0
  0
CLASS
  1
AECS_DISP_REP_MEMBER_MODEL_DESIGN
  2
AecsDbDispRepMemberModelDesign
  3
AecArchBase70|Product Desc: Autodesk Architectural Desktop 2007 |Company: Autodesk,Inc. |WEB Address: www.autodesk.com
 90
      129
 91
        1
280
     0
281
     0
  0
CLASS
  1
AECS_DISP_REP_MEMBER_ELEVATION_DESIGN
  2
AecsDbDispRepMemberElevationDesign
  3
AecArchBase70|Product Desc: Autodesk Architectural Desktop 2007 |Company: Autodesk,Inc. |WEB Address: www.autodesk.com
 90
      129
 91
        1
280
     0
281
     0
  0
CLASS
  1
AECS_DISP_REP_MEMBER_PLAN_DESIGN
  2
AecsDbDispRepMemberPlanDesign
  3
AecArchBase70|Product Desc: Autodesk Architectural Desktop 2007 |Company: Autodesk,Inc. |WEB Address: www.autodesk.com
 90
      129
 91
        1
280
     0
281
     0
  0
CLASS
  1
AECS_DISP_PROPS_MEMBER_PLAN
  2
AecsDbDispPropsMemberPlan
  3
AecArchBase70|Product Desc: Autodesk Architectural Desktop 2007 |Company: Autodesk,Inc. |WEB Address: www.autodesk.com
 90
      129
 91
        2
280
     0
281
     0
  0
CLASS
  1
AECS_DISP_REP_MEMBER_PLAN_DETAIL
  2
AecsDbDispRepMemberPlanDetail
  3
AecArchBase70|Product Desc: Autodesk Architectural Desktop 2007 |Company: Autodesk,Inc. |WEB Address: www.autodesk.com
 90
      129
 91
        1
280
     0
281
     0
  0
CLASS
  1
AECS_DISP_REP_MEMBER_PLAN_SKETCH
  2
AecsDbDispRepMemberPlanSketch
  3
AecArchBase70|Product Desc: Autodesk Architectural Desktop 2007 |Company: Autodesk,Inc. |WEB Address: www.autodesk.com
 90
      129
 91
        1
280
     0
281
     0
  0
CLASS
  1
AECS_DISP_PROPS_MEMBER_PLAN_SKETCH
  2
AecsDbDispPropsMemberPlanSketch
  3
AecArchBase70|Product Desc: Autodesk Architectural Desktop 2007 |Company: Autodesk,Inc. |WEB Address: www.autodesk.com
 90
      129
 91
        1
280
     0
281
     0
  0
CLASS
  1
AEC_DISP_REP_SCHEDULE_TABLE
  2
AecDbDispRepScheduleTable
  3
AecSchedule70|Product Desc: Autodesk Architectural Desktop 2007 |Company: Autodesk,Inc. |WEB Address: www.autodesk.com
 90
      129
 91
        1
280
     0
281
     0
  0
CLASS
  1
AEC_DISP_PROPS_SCHEDULE_TABLE
  2
AecDbDispPropsScheduleTable
  3
AecSchedule70|Product Desc: Autodesk Architectural Desktop 2007 |Company: Autodesk,Inc. |WEB Address: www.autodesk.com
 90
      129
 91
        1
280
     0
281
     0
  0
CLASS
  1
AEC_DISP_REP_SET
  2
AecDbDispRepSet
  3
AecBase70|Product Desc: Autodesk Architectural Desktop 2007 |Company: Autodesk,Inc. |WEB Address: www.autodesk.com
 90
      129
 91
       10
280
     0
281
     0
  0
CLASS
  1
AEC_DISP_REP_CONFIG
  2
AecDbDispRepConfig
  3
AecBase70|Product Desc: Autodesk Architectural Desktop 2007 |Company: Autodesk,Inc. |WEB Address: www.autodesk.com
 90
      129
 91
        2
280
     0
281
     0
  0
CLASS
  1
AEC_CLEANUP_GROUP_DEF
  2
AecDbCleanupGroupDef
  3
AecArchBase70|Product Desc: Autodesk Architectural Desktop 2007 |Company: Autodesk,Inc. |WEB Address: www.autodesk.com
 90
      129
 91
        1
280
     0
281
     0
  0
CLASS
  1
AEC_LAYERKEY_STYLE
  2
AecDbLayerKeyStyle
  3
AecBase70|Product Desc: Autodesk Architectural Desktop 2007 |Company: Autodesk,Inc. |WEB Address: www.autodesk.com
 90
      129
 91
        1
280
     0
281
     0
  0
CLASS
  1
AEC_VARS_ARCHBASE
  2
AecDbVarsArchBase
  3
AecArchBase70|Product Desc: Autodesk Architectural Desktop 2007 |Company: Autodesk,Inc. |WEB Address: www.autodesk.com
 90
      129
 91
        1
280
     0
281
     0
  0
CLASS
  1
AEC_VARS_STRUCTUREBASE
  2
AecsDbVarsStructureBase
  3
AecArchBase70|Product Desc: Autodesk Architectural Desktop 2007 |Company: Autodesk,Inc. |WEB Address: www.autodesk.com
 90
      129
 91
        1
280
     0
281
     0
  0
CLASS
  1
AEC_VARS_MUNICH
  2
AecDbVarsMunich
  3
AecArchBase70|Product Desc: Autodesk Architectural Desktop 2007 |Company: Autodesk,Inc. |WEB Address: www.autodesk.com
 90
      129
 91
        1
280
     0
281
     0
  0
CLASS
  1
BINRECORD
  2
AcAecBinRecord
  3
AecBase70|Product Desc: Autodesk Architectural Desktop 2007 |Company: Autodesk,Inc. |WEB Address: www.autodesk.com
 90
      129
 91
        1
280
     0
281
     0
  0
CLASS
  1
IMAGE
  2
AcDbRasterImage
  3
ISM
 90
     2175
 91
        0
280
     0
281
     1
  0
CLASS
  1
IMAGEDEF_REACTOR
  2
AcDbRasterImageDefReactor
  3
ISM
 90
        1
 91
        0
280
     0
281
     0
  0
CLASS
  1
IMAGEDEF
  2
AcDbRasterImageDef
  3
ISM
 90
        0
 91
        0
280
     0
281
     0
  0
CLASS
  1
RAPIDRTRENDERSETTINGS
  2
AcDbRapidRTRenderSettings
  3
ObjectDBX Classes
 90
     1024
 91
        2
280
     0
281
     0
  0
CLASS
  1
MENTALRAYRENDERSETTINGS
  2
AcDbMentalRayRenderSettings
  3
SCENEOE
 90
     1024
 91
        1
280
     0
281
     0
  0
ENDSEC
  0
SECTION
  2
TABLES
  0
TABLE
  2
VPORT
  5
8
102
{ACAD_XDICTIONARY
360
B51
102
}
330
0
100
AcDbSymbolTable
 70
     1
  0
VPORT
  5
DAB
330
8
100
AcDbSymbolTableRecord
100
AcDbViewportTableRecord
  2
*Active
 70
     0
 10
0.0
 20
0.0
 11
1.0
 21
1.0
 12
271.3946702151741
 22
-29.78215907658226
 13
0.0
 23
0.0
 14
0.5
 24
0.5
 15
0.5
 25
0.5
 16
0.0
 26
0.0
 36
1.0
 17
0.0
 27
0.0
 37
0.0
 40
117.6977532804702
 41
2.068714632174616
 42
50.0
 43
0.0
 44
0.0
 50
0.0
 51
0.0
 71
     0
 72
  1000
 73
     1
 74
     3
 75
     0
 76
     1
 77
     0
 78
     1
281
     0
 65
     1
110
0.0
120
0.0
130
0.0
111
1.0
121
0.0
131
0.0
112
0.0
122
1.0
132
0.0
 79
     0
146
0.0
348
9F
 60
     2
 61
     5
292
     1
282
     1
141
0.0
142
0.0
 63
   250
421
  3355443
1001
ACAD_NAV_VCDISPLAY
1070
     3
  0
ENDTAB
  0
TABLE
  2
LTYPE
  5
5
330
0
100
AcDbSymbolTable
 70
     2
  0
LTYPE
  5
14
330
5
100
AcDbSymbolTableRecord
100
AcDbLinetypeTableRecord
  2
ByBlock
 70
     0
  3

 72
    65
 73
     0
 40
0.0
  0
LTYPE
  5
15
330
5
100
AcDbSymbolTableRecord
100
AcDbLinetypeTableRecord
  2
ByLayer
 70
     0
  3

 72
    65
 73
     0
 40
0.0
  0
LTYPE
  5
16
330
5
100
AcDbSymbolTableRecord
100
AcDbLinetypeTableRecord
  2
Continuous
 70
     0
  3
Solid line
 72
    65
 73
     0
 40
0.0
  0
LTYPE
  5
A610A
330
5
100
AcDbSymbolTableRecord
100
AcDbLinetypeTableRecord
  2
DASHED
 70
     0
  3
Dashed __ __ __ __ __ __ __ __ __ __ __ __ __ _
 72
    65
 73
     2
 40
0.75
 49
0.5
 74
     0
 49
-0.25
 74
     0
  0
ENDTAB
  0
TABLE
  2
LAYER
  5
2
102
{ACAD_XDICTIONARY
360
E7
102
}
330
0
100
AcDbSymbolTable
 70
    35
  0
LAYER
  5
10
102
{ACAD_XDICTIONARY
360
A6C
102
}
330
2
100
AcDbSymbolTableRecord
100
AcDbLayerTableRecord
  2
0
 70
     0
 62
     7
  6
Continuous
370
    -3
390
F
347
98
348
0
  0
LAYER
  5
9D0
330
2
100
AcDbSymbolTableRecord
100
AcDbLayerTableRecord
  2
Defpoints
 70
     0
 62
     7
  6
Continuous
290
     0
370
    -3
390
F
347
98
348
0
  0
LAYER
  5
9583E
330
2
100
AcDbSymbolTableRecord
100
AcDbLayerTableRecord
  2
HI Fitting
 70
     0
 62
     3
  6
Continuous
370
    -3
390
F
347
98
348
0
1001
AcAecLayerStandard
1000

1000

1001
AcCmTransparency
1071
        0
  0
LAYER
  5
9583F
330
2
100
AcDbSymbolTableRecord
100
AcDbLayerTableRecord
  2
HI Lateral
 70
     0
 62
     2
  6
Continuous
370
    -3
390
F
347
98
348
0
1001
AcAecLayerStandard
1000

1000

1001
AcCmTransparency
1071
        0
  0
LAYER
  5
9588B
330
2
100
AcDbSymbolTableRecord
100
AcDbLayerTableRecord
  2
HI Text
 70
     0
 62
     2
  6
Continuous
370
    -3
390
F
347
98
348
0
1001
AcAecLayerStandard
1000

1000

1001
AcCmTransparency
1071
        0
  0
LAYER
  5
9C87A
330
2
100
AcDbSymbolTableRecord
100
AcDbLayerTableRecord
  2
HI HATCH FILL
 70
     0
 62
     9
  6
Continuous
370
    -3
390
F
347
98
348
0
1001
AcAecLayerStandard
1000

1000

1001
AcCmTransparency
1071
        0
  0
LAYER
  5
9CBA3
330
2
100
AcDbSymbolTableRecord
100
AcDbLayerTableRecord
  2
HI Product Outline
 70
     0
 62
     5
  6
Continuous
370
    -3
390
F
347
98
348
0
1001
AcAecLayerStandard
1000

1000

1001
AcCmTransparency
1071
        0
  0
LAYER
  5
9CBA6
330
2
100
AcDbSymbolTableRecord
100
AcDbLayerTableRecord
  2
HI Lateral Detail
 70
     0
 62
   249
  6
Continuous
370
    -3
390
F
347
98
348
0
1001
AcAecLayerStandard
1000

1000

1001
AcCmTransparency
1071
        0
  0
LAYER
  5
9CBA7
330
2
100
AcDbSymbolTableRecord
100
AcDbLayerTableRecord
  2
HI Deatil 1
 70
     0
 62
     2
  6
Continuous
370
    -3
390
F
347
98
348
0
1001
AcAecLayerStandard
1000

1000

1001
AcCmTransparency
1071
        0
  0
LAYER
  5
9CBA8
330
2
100
AcDbSymbolTableRecord
100
AcDbLayerTableRecord
  2
HI Deatil 2
 70
     0
 62
     1
  6
Continuous
370
    -3
390
F
347
98
348
0
1001
AcAecLayerStandard
1000

1000

1001
AcCmTransparency
1071
        0
  0
LAYER
  5
9CBA9
330
2
100
AcDbSymbolTableRecord
100
AcDbLayerTableRecord
  2
HI Detail 3
 70
     0
 62
   249
  6
Continuous
370
    -3
390
F
347
98
348
0
1001
AcAecLayerStandard
1000

1000

1001
AcCmTransparency
1071
        0
  0
LAYER
  5
9CBAB
330
2
100
AcDbSymbolTableRecord
100
AcDbLayerTableRecord
  2
HI Dimensions
 70
     0
 62
     1
  6
Continuous
370
    -3
390
F
347
98
348
0
1001
AcAecLayerStandard
1000

1000

1001
AcCmTransparency
1071
        0
  0
LAYER
  5
9EC2B
102
{ACAD_XDICTIONARY
360
9EC2C
102
}
330
2
100
AcDbSymbolTableRecord
100
AcDbLayerTableRecord
  2
L-dtl-htch
 70
     0
 62
   212
  6
Continuous
370
     0
390
F
347
98
348
0
1001
AcAecLayerStandard
1000

1000

  0
LAYER
  5
A0E56
330
2
100
AcDbSymbolTableRecord
100
AcDbLayerTableRecord
  2
HI Building Wall
 70
     0
 62
     6
  6
Continuous
370
    25
390
F
347
98
348
0
1001
AcAecLayerStandard
1000

1000

1001
AcCmTransparency
1071
        0
  0
LAYER
  5
A1F94
330
2
100
AcDbSymbolTableRecord
100
AcDbLayerTableRecord
  2
HI Text2
 70
     0
 62
     1
  6
Continuous
370
    -3
390
F
347
98
348
0
1001
AcAecLayerStandard
1000

1000

1001
AcCmTransparency
1071
        0
  0
LAYER
  5
A21B7
330
2
100
AcDbSymbolTableRecord
100
AcDbLayerTableRecord
  2
HI No Print
 70
     0
 62
     7
  6
Continuous
290
     0
370
    -3
390
F
347
98
348
0
1001
AcAecLayerStandard
1000

1000

1001
AcCmTransparency
1071
        0
  0
LAYER
  5
A610B
330
2
100
AcDbSymbolTableRecord
100
AcDbLayerTableRecord
  2
D-OBJECT
 70
     0
 62
     2
  6
Continuous
370
    -3
390
F
347
98
348
0
1001
AcAecLayerStandard
1000

1000

1001
AcCmTransparency
1071
        0
  0
LAYER
  5
A610C
330
2
100
AcDbSymbolTableRecord
100
AcDbLayerTableRecord
  2
D-OBJECT LIGHT
 70
     0
 62
     4
  6
Continuous
370
    -3
390
F
347
98
348
0
1001
AcAecLayerStandard
1000

1000

1001
AcCmTransparency
1071
        0
  0
LAYER
  5
A610D
330
2
100
AcDbSymbolTableRecord
100
AcDbLayerTableRecord
  2
D-OBJECT HEAVY
 70
     0
 62
     3
  6
Continuous
370
    -3
390
F
347
98
348
0
1001
AcAecLayerStandard
1000

1000

1001
AcCmTransparency
1071
        0
  0
LAYER
  5
A610E
330
2
100
AcDbSymbolTableRecord
100
AcDbLayerTableRecord
  2
D-TEXT
 70
     0
 62
     2
  6
Continuous
370
    -3
390
F
347
98
348
0
1001
AcAecLayerStandard
1000

1000

1001
AcCmTransparency
1071
        0
  0
LAYER
  5
A610F
330
2
100
AcDbSymbolTableRecord
100
AcDbLayerTableRecord
  2
D-LEADER
 70
     0
 62
     2
  6
Continuous
370
    -3
390
F
347
98
348
0
1001
AcAecLayerStandard
1000

1000

1001
AcCmTransparency
1071
        0
  0
LAYER
  5
A6110
330
2
100
AcDbSymbolTableRecord
100
AcDbLayerTableRecord
  2
D-HATCH
 70
     0
 62
     1
  6
Continuous
370
    -3
390
F
347
98
348
0
1001
AcAecLayerStandard
1000

1000

1001
AcCmTransparency
1071
        0
  0
LAYER
  5
A6111
330
2
100
AcDbSymbolTableRecord
100
AcDbLayerTableRecord
  2
D-DASHED LIGHT
 70
     0
 62
     4
  6
DASHED
370
    -3
390
F
347
98
348
0
1001
AcAecLayerStandard
1000

1000

1001
AcCmTransparency
1071
        0
  0
LAYER
  5
A6112
330
2
100
AcDbSymbolTableRecord
100
AcDbLayerTableRecord
  2
D-HATCH SCREENED
 70
     0
 62
     8
  6
Continuous
370
    -3
390
F
347
98
348
0
1001
AcAecLayerStandard
1000

1000

1001
AcCmTransparency
1071
        0
  0
LAYER
  5
ACA98
330
2
100
AcDbSymbolTableRecord
100
AcDbLayerTableRecord
  2
Hunter Product Heavy
 70
     0
 62
     1
  6
Continuous
370
    50
390
F
347
98
348
0
1001
AcAecLayerStandard
1000

1000

  0
LAYER
  5
ACA99
330
2
100
AcDbSymbolTableRecord
100
AcDbLayerTableRecord
  2
Hunter Product Light
 70
     0
 62
   254
  6
Continuous
370
    -3
390
F
347
98
348
0
1001
AcAecLayerStandard
1000

1000

  0
LAYER
  5
ACA9A
330
2
100
AcDbSymbolTableRecord
100
AcDbLayerTableRecord
  2
Hunter Hidden
 70
     0
 62
     6
  6
Continuous
290
     0
370
    -3
390
F
347
98
348
0
1001
AcAecLayerStandard
1000

1000

  0
LAYER
  5
ACEBE
330
2
100
AcDbSymbolTableRecord
100
AcDbLayerTableRecord
  2
Hunter Product Medium
 70
     0
 62
     2
  6
Continuous
370
    -3
390
F
347
98
348
0
1001
AcAecLayerStandard
1000

1000

  0
LAYER
  5
ACEBF
330
2
100
AcDbSymbolTableRecord
100
AcDbLayerTableRecord
  2
Hunter Finished Grade
 70
     0
 62
     3
  6
Continuous
370
    50
390
F
347
98
348
0
1001
AcAecLayerStandard
1000

1000

  0
LAYER
  5
ACEC0
330
2
100
AcDbSymbolTableRecord
100
AcDbLayerTableRecord
  2
Hunter Hatch Patterns
 70
     0
 62
   254
  6
Continuous
370
    -3
390
F
347
98
348
0
1001
AcAecLayerStandard
1000

1000

  0
LAYER
  5
ACEC1
330
2
100
AcDbSymbolTableRecord
100
AcDbLayerTableRecord
  2
Hunter Leaders
 70
     0
 62
     3
  6
Continuous
370
    -3
390
F
347
98
348
0
1001
AcAecLayerStandard
1000

1000

  0
LAYER
  5
ACEC2
330
2
100
AcDbSymbolTableRecord
100
AcDbLayerTableRecord
  2
Hunter Legend
 70
     0
 62
     4
  6
Continuous
370
    -3
390
F
347
98
348
0
1001
AcAecLayerStandard
1000

1000

  0
LAYER
  5
ACEC3
330
2
100
AcDbSymbolTableRecord
100
AcDbLayerTableRecord
  2
Hunter Detail Title
 70
     0
 62
     5
  6
Continuous
370
    -3
390
F
347
98
348
0
1001
AcAecLayerStandard
1000

1000

  0
LAYER
  5
ACEC4
330
2
100
AcDbSymbolTableRecord
100
AcDbLayerTableRecord
  2
Hunter Detail Number
 70
     0
 62
     3
  6
Continuous
370
    -3
390
F
347
98
348
0
1001
AcAecLayerStandard
1000

1000

  0
LAYER
  5
AD35F
102
{ACAD_XDICTIONARY
360
AD360
102
}
330
2
100
AcDbSymbolTableRecord
100
AcDbLayerTableRecord
  2
0hunter-svc
 70
     0
 62
     3
  6
Continuous
370
    35
390
F
347
98
348
0
  0
ENDTAB
  0
TABLE
  2
STYLE
  5
3
330
0
100
AcDbSymbolTable
 70
     5
  0
STYLE
  5
11
330
3
100
AcDbSymbolTableRecord
100
AcDbTextStyleTableRecord
  2
Standard
 70
     0
 40
0.0
 41
1.0
 50
0.0
 71
     0
 42
12.10402048440558
  3
arial.ttf
  4

1001
ACAD
1000
Arial
1071
       34
  0
STYLE
  5
1BACD
330
3
100
AcDbSymbolTableRecord
100
AcDbTextStyleTableRecord
  2
DIMS
 70
     0
 40
0.0
 41
1.0
 50
0.0
 71
     0
 42
0.2
  3
arial.ttf
  4

1001
ACAD
1000
Arial
1071
       34
  0
STYLE
  5
5DCD6
330
3
100
AcDbSymbolTableRecord
100
AcDbTextStyleTableRecord
  2
Hunter
 70
     0
 40
0.0
 41
0.7
 50
0.0
 71
     0
 42
0.09375
  3
romans.shx
  4

  0
STYLE
  5
78DB5
330
3
100
AcDbSymbolTableRecord
100
AcDbTextStyleTableRecord
  2
STYLE1
 70
     0
 40
0.0
 41
1.0
 50
0.0
 71
     0
 42
0.2
  3
txt
  4

  0
STYLE
  5
A6113
330
3
100
AcDbSymbolTableRecord
100
AcDbTextStyleTableRecord
  2
romand
 70
     0
 40
0.25
 41
1.0
 50
0.0
 71
     0
 42
0.25
  3
romand.shx
  4

  0
ENDTAB
  0
TABLE
  2
VIEW
  5
6
330
0
100
AcDbSymbolTable
 70
     0
  0
ENDTAB
  0
TABLE
  2
UCS
  5
7
330
0
100
AcDbSymbolTable
 70
     0
  0
ENDTAB
  0
TABLE
  2
APPID
  5
9
330
0
100
AcDbSymbolTable
 70
    17
  0
APPID
  5
12
330
9
100
AcDbSymbolTableRecord
100
AcDbRegAppTableRecord
  2
ACAD
 70
     0
  0
APPID
  5
BE
330
9
100
AcDbSymbolTableRecord
100
AcDbRegAppTableRecord
  2
ACAD_PSEXT
 70
     0
  0
APPID
  5
DBF
330
9
100
AcDbSymbolTableRecord
100
AcDbRegAppTableRecord
  2
AcAecLayerStandard
 70
     0
  0
APPID
  5
FEF2
330
9
100
AcDbSymbolTableRecord
100
AcDbRegAppTableRecord
  2
ACAD_DSTYLE_DIMJOGGED_JOGANGLE_SYMBOL
 70
     0
  0
APPID
  5
1BACF
330
9
100
AcDbSymbolTableRecord
100
AcDbRegAppTableRecord
  2
ACAD_DSTYLE_DIMJAG
 70
     0
  0
APPID
  5
1BAD0
330
9
100
AcDbSymbolTableRecord
100
AcDbRegAppTableRecord
  2
ACAD_DSTYLE_DIMTALN
 70
     0
  0
APPID
  5
5B55B
330
9
100
AcDbSymbolTableRecord
100
AcDbRegAppTableRecord
  2
ACAD_NAV_VCDISPLAY
 70
     0
  0
APPID
  5
5C537
330
9
100
AcDbSymbolTableRecord
100
AcDbRegAppTableRecord
  2
AEC_OBJVER_INFO
 70
     0
  0
APPID
  5
95767
330
9
100
AcDbSymbolTableRecord
100
AcDbRegAppTableRecord
  2
AcCmTransparency
 70
     0
  0
APPID
  5
9C807
330
9
100
AcDbSymbolTableRecord
100
AcDbRegAppTableRecord
  2
AEC_XDATA_BOUND_SPACE
 70
     0
  0
APPID
  5
9C925
330
9
100
AcDbSymbolTableRecord
100
AcDbRegAppTableRecord
  2
GradientColor1ACI
 70
     0
  0
APPID
  5
9C926
330
9
100
AcDbSymbolTableRecord
100
AcDbRegAppTableRecord
  2
GradientColor2ACI
 70
     0
  0
APPID
  5
A0A0A
330
9
100
AcDbSymbolTableRecord
100
AcDbRegAppTableRecord
  2
ACAD_MLEADERVER
 70
     0
  0
APPID
  5
A0A2C
330
9
100
AcDbSymbolTableRecord
100
AcDbRegAppTableRecord
  2
ManulPointsAssociative
 70
     0
  0
APPID
  5
A0A2D
330
9
100
AcDbSymbolTableRecord
100
AcDbRegAppTableRecord
  2
LandFX
 70
     0
  0
APPID
  5
A0DDB
330
9
100
AcDbSymbolTableRecord
100
AcDbRegAppTableRecord
  2
ACAD_EXEMPT_FROM_CAD_STANDARDS
 70
     0
  0
APPID
  5
A3AA6
330
9
100
AcDbSymbolTableRecord
100
AcDbRegAppTableRecord
  2
ACAD_DSTYLE_DIMRADIAL_EXTENSION
 70
     0
  0
ENDTAB
  0
TABLE
  2
DIMSTYLE
  5
A
330
0
100
AcDbSymbolTable
 70
     9
100
AcDbDimStyleTable
 71
     3
340
9EC41
340
1BACE
340
27
  0
DIMSTYLE
105
27
330
A
100
AcDbSymbolTableRecord
100
AcDbDimStyleTableRecord
  2
Standard
 70
     0
340
11
  0
DIMSTYLE
105
1BACE
330
A
100
AcDbSymbolTableRecord
100
AcDbDimStyleTableRecord
  2
LandMatters
 70
     0
 41
0.125
 49
0.18
 73
     0
 74
     0
140
0.125
141
0.0750000000000001
147
0.095
174
     1
176
     2
177
     2
178
     2
271
     3
272
     3
277
     4
279
     1
289
     1
340
1BACD
342
1BAAE
1001
ACAD_DSTYLE_DIMJOGGED_JOGANGLE_SYMBOL
1070
   384
1040
0.7853981633974483
1001
ACAD_DSTYLE_DIMJAG
1070
   388
1040
1.5
1001
ACAD_DSTYLE_DIMTALN
1070
   392
1070
     0
  0
DIMSTYLE
105
9EC41
330
A
100
AcDbSymbolTableRecord
100
AcDbDimStyleTableRecord
  2
HUNTER-1.5INCH
 70
     0
 41
1.0
 42
0.05
 43
0.505
 44
0.675
 46
0.675
 73
     0
 74
     0
 78
     3
140
1.0
144
0.9999999999999998
147
0.04
172
     1
176
   256
177
   256
178
   256
271
     0
272
     0
277
     4
279
     2
289
     1
340
5DCD6
341
9EC11
342
1BAAE
371
    -1
  0
DIMSTYLE
105
ACA9B
330
A
100
AcDbSymbolTableRecord
100
AcDbDimStyleTableRecord
  2
HUNTER-3INCH
 70
     0
 41
0.375
 42
0.05
 43
0.505
 44
0.3
 46
0.3
 73
     0
 74
     0
 78
     3
140
0.5
147
0.04
172
     1
176
   256
177
   256
178
   256
271
     2
272
     2
277
     4
279
     2
289
     1
340
5DCD6
341
9EC11
342
1BAAE
371
    -1
  0
DIMSTYLE
105
ACA9C
330
A
100
AcDbSymbolTableRecord
100
AcDbDimStyleTableRecord
  2
LandFX-QLEADER-SDIM1
 70
     0
 41
0.3
140
0.2
340
11
  0
DIMSTYLE
105
ACA9D
330
A
100
AcDbSymbolTableRecord
100
AcDbDimStyleTableRecord
  2
LandFX-QLEADER-SDIM10
 70
     0
 40
10.0
140
0.02
340
11
  0
DIMSTYLE
105
ACA9E
330
A
100
AcDbSymbolTableRecord
100
AcDbDimStyleTableRecord
  2
LandFX-QLEADER-SDIM5
 70
     0
 40
5.0
140
0.04
340
11
  0
DIMSTYLE
105
ACA9F
330
A
100
AcDbSymbolTableRecord
100
AcDbDimStyleTableRecord
  2
LandFX-QLEADER-SDIM2
 70
     0
 40
2.0
140
0.1
340
11
  0
DIMSTYLE
105
ACAA0
330
A
100
AcDbSymbolTableRecord
100
AcDbDimStyleTableRecord
  2
LandFX-QLEADER-SDIM3
 70
     0
 40
3.0
140
0.0666666666666667
340
11
  0
ENDTAB
  0
TABLE
  2
BLOCK_RECORD
  5
1
330
0
100
AcDbSymbolTable
 70
     5
  0
BLOCK_RECORD
  5
1F
102
{ACAD_XDICTIONARY
360
A62
102
}
330
1
100
AcDbSymbolTableRecord
100
AcDbBlockTableRecord
  2
*Model_Space
340
22
 70
     0
280
     1
281
     0
  0
BLOCK_RECORD
  5
A21A0
330
1
100
AcDbSymbolTableRecord
100
AcDbBlockTableRecord
  2
*Paper_Space
340
A21A1
 70
     0
280
     1
281
     0
  0
BLOCK_RECORD
  5
1BAAE
330
1
100
AcDbSymbolTableRecord
100
AcDbBlockTableRecord
  2
_ARCHTICK
340
0
 70
     0
280
     1
281
     0
  0
BLOCK_RECORD
  5
9EC11
330
1
100
AcDbSymbolTableRecord
100
AcDbBlockTableRecord
  2
_Open90
340
0
 70
     0
280
     1
281
     0
  0
BLOCK_RECORD
  5
A024C
330
1
100
AcDbSymbolTableRecord
100
AcDbBlockTableRecord
  2
_Integral
340
0
 70
     0
280
     1
281
     0
  0
BLOCK_RECORD
  5
A21B8
330
1
100
AcDbSymbolTableRecord
100
AcDbBlockTableRecord
  2
*Paper_Space3
340
A21B9
 70
     0
280
     1
281
     0
  0
BLOCK_RECORD
  5
A3B49
330
1
100
AcDbSymbolTableRecord
100
AcDbBlockTableRecord
  2
_FILLED
340
0
 70
     0
280
     1
281
     0
  0
ENDTAB
  0
ENDSEC
  0
SECTION
  2
BLOCKS
  0
BLOCK
  5
20
330
1F
100
AcDbEntity
  8
0
100
AcDbBlockBegin
  2
*Model_Space
 70
     0
 10
0.0
 20
0.0
 30
0.0
  3
*Model_Space
  1

  0
ENDBLK
  5
21
330
1F
100
AcDbEntity
  8
0
100
AcDbBlockEnd
  0
BLOCK
  5
A21A2
330
A21A0
100
AcDbEntity
 67
     1
  8
0
100
AcDbBlockBegin
  2
*Paper_Space
 70
     0
 10
0.0
 20
0.0
 30
0.0
  3
*Paper_Space
  1

  0
ENDBLK
  5
A21A3
330
A21A0
100
AcDbEntity
 67
     1
  8
0
100
AcDbBlockEnd
  0
BLOCK
  5
1BAAF
330
1BAAE
100
AcDbEntity
  8
0
100
AcDbBlockBegin
  2
_ARCHTICK
 70
     0
 10
0.0
 20
0.0
 30
0.0
  3
_ARCHTICK
  1

  0
LWPOLYLINE
  5
1BAB0
330
1BAAE
100
AcDbEntity
  8
0
  6
ByBlock
 62
     0
100
AcDbPolyline
 90
        2
 70
     0
 43
0.15
 10
-0.5
 20
-0.5
 10
0.5
 20
0.5
  0
ENDBLK
  5
1BAB1
330
1BAAE
100
AcDbEntity
  8
0
100
AcDbBlockEnd
  0
BLOCK
  5
9EC12
330
9EC11
100
AcDbEntity
  8
0
100
AcDbBlockBegin
  2
_Open90
 70
     0
 10
0.0
 20
0.0
 30
0.0
  3
_Open90
  1

  0
LINE
  5
9EC13
330
9EC11
100
AcDbEntity
  8
L-dtl-htch
 62
     0
370
    -2
100
AcDbLine
 10
-0.5
 20
0.5
 30
0.0
 11
0.0
 21
0.0
 31
0.0
  0
LINE
  5
9EC14
330
9EC11
100
AcDbEntity
  8
L-dtl-htch
 62
     0
370
    -2
100
AcDbLine
 10
0.0
 20
0.0
 30
0.0
 11
-0.5
 21
-0.5
 31
0.0
  0
LINE
  5
9EC15
330
9EC11
100
AcDbEntity
  8
L-dtl-htch
 62
     0
370
    -2
100
AcDbLine
 10
0.0
 20
0.0
 30
0.0
 11
-1.0
 21
0.0
 31
0.0
  0
ENDBLK
  5
9EC16
330
9EC11
100
AcDbEntity
  8
0
100
AcDbBlockEnd
  0
BLOCK
  5
A024F
330
A024C
100
AcDbEntity
  8
0
100
AcDbBlockBegin
  2
_Integral
 70
     0
 10
0.0
 20
0.0
 30
0.0
  3
_Integral
  1

  0
ARC
  5
A024D
330
A024C
100
AcDbEntity
  8
0
  6
ByBlock
 62
     0
370
    -2
100
AcDbCircle
 10
0.44488802
 20
-0.09133463
 30
0.0
 40
0.4541666700000001
100
AcDbArc
 50
101.9999999980395
 51
167.9999999799193
  0
ARC
  5
A024E
330
A024C
100
AcDbEntity
  8
0
  6
ByBlock
 62
     0
370
    -2
100
AcDbCircle
 10
-0.44488802
 20
0.09133463
 30
0.0
 40
0.4541666700000001
100
AcDbArc
 50
282.0000000215427
 51
348.0000000034225
  0
ENDBLK
  5
A0250
330
A024C
100
AcDbEntity
  8
0
100
AcDbBlockEnd
  0
BLOCK
  5
A21BA
330
A21B8
100
AcDbEntity
 67
     1
  8
0
100
AcDbBlockBegin
  2
*Paper_Space3
 70
     0
 10
0.0
 20
0.0
 30
0.0
  3
*Paper_Space3
  1

  0
VIEWPORT
  5
A21C6
102
{ACAD_XDICTIONARY
360
A21C7
102
}
330
A21B8
100
AcDbEntity
 67
     1
  8
0
100
AcDbViewport
 10
3.670668257697307
 20
4.625868984200012
 30
0.0
 40
40.94351095289707
 41
19.79176359856728
 68
     0
 69
     0
 12
3.670668257697307
 22
4.625868984200012
 13
0.0
 23
0.0
 14
0.5
 24
0.5
 15
0.5
 25
0.5
 16
0.0
 26
0.0
 36
1.0
 17
0.0
 27
0.0
 37
0.0
 42
50.0
 43
0.0
 44
0.0
 45
19.79176359856728
 50
0.0
 51
0.0
 72
  1000
 90
   819232
  1

281
     0
 71
     1
 74
     0
110
0.0
120
0.0
130
0.0
111
1.0
121
0.0
131
0.0
112
0.0
122
1.0
132
0.0
 79
     0
146
0.0
170
     0
 61
     5
348
9F
292
     1
282
     1
141
0.0
142
0.0
 63
   250
421
  3355443
  0
VIEWPORT
  5
A21CA
102
{ACAD_XDICTIONARY
360
A21CB
102
}
330
A21B8
100
AcDbEntity
 67
     1
  8
HI No Print
100
AcDbViewport
 10
3.897432681905101
 20
5.135389994041384
 30
0.0
 40
7.764313468173781
 41
10.24369826426696
 68
     0
 69
     0
 12
258.0658104443997
 22
-13.26834691181505
 13
0.0
 23
0.0
 14
0.5
 24
0.5
 15
0.5
 25
0.5
 16
0.0
 26
0.0
 36
1.0
 17
0.0
 27
0.0
 37
0.0
 42
50.0
 43
0.0
 44
0.0
 45
48.21836698928852
 50
0.0
 51
0.0
 72
  1000
 90
   557664
  1

281
     0
 71
     1
 74
     0
110
0.0
120
0.0
130
0.0
111
1.0
121
0.0
131
0.0
112
0.0
122
1.0
132
0.0
 79
     0
146
0.0
170
     0
 61
     5
348
9F
292
     1
282
     1
141
0.0
142
0.0
 63
   250
421
  3355443
  0
ENDBLK
  5
A21BB
330
A21B8
100
AcDbEntity
 67
     1
  8
0
100
AcDbBlockEnd
  0
BLOCK
  5
A3B4A
330
A3B49
100
AcDbEntity
  8
0
100
AcDbBlockBegin
  2
_FILLED
 70
     0
 10
0.0
 20
0.0
 30
0.0
  3
_FILLED
  1

  0
SOLID
  5
A3B4B
330
A3B49
100
AcDbEntity
  8
0
  6
ByBlock
 62
     0
100
AcDbTrace
 10
0.0
 20
0.0
 30
0.0
 11
-1.0
 21
0.16875
 31
0.0
 12
-1.0
 22
-0.16875
 32
0.0
 13
-1.0
 23
-0.16875
 33
0.0
  0
ENDBLK
  5
A3B4C
330
A3B49
100
AcDbEntity
  8
0
  6
ByBlock
 62
     0
100
AcDbBlockEnd
  0
ENDSEC
  0
SECTION
  2
ENTITIES
  0
CIRCLE
  5
A06B8
330
1F
100
AcDbEntity
  8
HI Text
100
AcDbCircle
 10
242.2665344245878
 20
-32.53331324561314
 30
0.0
 40
1.633232321863463
  0
LINE
  5
A06B9
330
1F
100
AcDbEntity
  8
HI Text
100
AcDbLine
 10
243.8997667464509
 20
-32.53331324561314
 30
0.0
 11
275.4937950276051
 21
-32.53331324561312
 31
0.0
  0
CIRCLE
  5
A06BA
330
1F
100
AcDbEntity
  8
HI Text
100
AcDbCircle
 10
247.3547572827524
 20
-32.99329924028216
 30
0.0
 40
0.0666400503025599
  0
TEXT
  5
A06BB
330
1F
100
AcDbEntity
  8
HI Text
100
AcDbText
 10
247.3274566644117
 20
-33.0340316117626
 30
0.0
 40
0.0866448019748771
  1
R
  7
STYLE1
 72
     1
 11
247.35633826507
 21
-33.0340316117626
 31
0.0
100
AcDbText
  0
CIRCLE
  5
A06BC
102
{ACAD_REACTORS
330
AC973
102
}
330
1F
100
AcDbEntity
  8
HI Text
100
AcDbCircle
 10
247.1897932986953
 20
-33.17566594021305
 30
0.0
 40
0.0996040771360683
  0
LWPOLYLINE
  5
A06BD
102
{ACAD_REACTORS
330
AC973
102
}
330
1F
100
AcDbEntity
  8
HI Text
100
AcDbPolyline
 90
        5
 70
     1
 43
0.0
 10
246.8346674047631
 20
-33.32164031881274
 10
246.8346674047705
 20
-33.26368987270696
 42
0.3591622824268968
 10
246.6507561185306
 20
-33.07640038042506
 10
246.6168000360587
 20
-33.07640038041154
 10
246.6168000360587
 20
-33.32164031881274
  0
LWPOLYLINE
  5
A06BE
102
{ACAD_REACTORS
330
AC973
102
}
330
1F
100
AcDbEntity
  8
HI Text
100
AcDbPolyline
 90
        5
 70
     1
 43
0.0
 10
245.2327103022603
 20
-33.56721877454184
 10
245.2863237748211
 20
-33.56721877454184
 10
245.2863237748211
 20
-33.07606186308428
 10
245.0777411191715
 20
-33.07606186308428
 10
245.0777411191715
 20
-33.41224959145298
 42
0.4142135623730951
  0
LWPOLYLINE
  5
A06BF
102
{ACAD_REACTORS
330
AC973
102
}
330
1F
100
AcDbEntity
  8
HI Text
100
AcDbPolyline
 90
        5
 70
     1
 43
0.0
 10
245.3333023283942
 20
-33.07606186308428
 10
245.541884984044
 20
-33.07606186308428
 10
245.541884984044
 20
-33.41224959145298
 42
-0.4142135623730951
 10
245.386915800955
 20
-33.5672187745418
 10
245.3333023283942
 20
-33.56721877454184
  0
LWPOLYLINE
  5
A06C0
102
{ACAD_REACTORS
330
AC973
102
}
330
1F
100
AcDbEntity
  8
HI Text
100
AcDbPolyline
 90
        5
 70
     1
 43
0.0
 10
245.8444247468398
 20
-33.07606186308428
 10
245.8444247468398
 20
-33.56721877454184
 10
246.0530074024894
 20
-33.56721877454184
 10
246.0530074024894
 20
-33.23103104617313
 42
0.4142135623730948
 10
245.8980382194006
 20
-33.07606186308432
  0
LWPOLYLINE
  5
A06C1
102
{ACAD_REACTORS
330
AC973
102
}
330
1F
100
AcDbEntity
  8
HI Text
100
AcDbPolyline
 90
        4
 70
     1
 43
0.0
 10
246.8581369853379
 20
-33.56721877453452
 10
246.8581369853379
 20
-33.07606186307696
 10
247.0667196409876
 20
-33.07606186307696
 10
247.0667196409876
 20
-33.56721877453452
  0
LWPOLYLINE
  5
A06C2
102
{ACAD_REACTORS
330
AC973
102
}
330
1F
100
AcDbEntity
  8
HI Text
100
AcDbPolyline
 90
        7
 70
     0
 43
0.0
 10
246.5918571663222
 20
-33.56688025720107
 42
0.1809313373683727
 10
246.8253422114763
 20
-33.47953126462917
 10
246.8253422114664
 20
-33.4144553442629
 42
-0.2202952373044754
 10
246.5669142965855
 20
-33.51102349169158
 10
246.5669142965849
 20
-33.07640038042511
 42
0.9488198287109453
 10
246.5669142965856
 20
-33.56688025720103
 10
246.5918571663222
 20
-33.56688025720107
  0
LWPOLYLINE
  5
A06C3
102
{ACAD_REACTORS
330
AC973
102
}
330
1F
100
AcDbEntity
  8
HI Text
100
AcDbPolyline
 90
       12
 70
     1
 43
0.0
 10
244.7762057672375
 20
-33.22170143805636
 10
244.7762057672375
 20
-33.56721877454184
 10
245.0307625655984
 20
-33.56721877454184
 10
245.0307625655984
 20
-32.87685370881217
 10
244.7762057672375
 20
-32.87685370881217
 10
244.7762057672376
 20
-33.15775394651693
 10
244.708134585565
 20
-33.15775394651693
 10
244.7081345855652
 20
-32.87685370881217
 10
244.4535777872042
 20
-32.87685370881217
 10
244.4535777872042
 20
-33.56721877454184
 10
244.7081345855651
 20
-33.56721877454184
 10
244.7081345855651
 20
-33.22170143805636
  0
LWPOLYLINE
  5
A06C4
102
{ACAD_REACTORS
330
AC973
102
}
330
1F
100
AcDbEntity
  8
HI Text
100
AcDbPolyline
 90
        4
 70
     1
 43
0.0
 10
245.7974461932667
 20
-33.56721877454184
 10
245.5888635376171
 20
-33.56721877454184
 10
245.5888635376171
 20
-33.07606186308428
 10
245.7974461932667
 20
-33.07606186308428
  0
LWPOLYLINE
  5
A06C5
102
{ACAD_REACTORS
330
AC973
102
}
330
1F
100
AcDbEntity
  8
HI Text
100
AcDbPolyline
 90
        9
 70
     1
 43
0.0
 10
246.0280937864766
 20
-33.12996524600499
 10
246.3085292192825
 20
-32.88307159365013
 10
246.3085292192825
 20
-33.07606186308428
 10
246.3922301244388
 20
-33.07606186308428
 10
246.3922301244389
 20
-33.12996524600499
 10
246.3085292192825
 20
-33.12996524600499
 10
246.3085292192825
 20
-33.56721877454184
 10
246.0999465636329
 20
-33.56721877454184
 10
246.0999465636329
 20
-33.12996524600499
  0
MTEXT
  5
A06C6
102
{ACAD_XDICTIONARY
360
A09BD
102
}
330
1F
100
AcDbEntity
  8
HI Text
100
AcDbMText
 10
290.8522373627083
 20
-31.71999967223595
 30
0.0
 40
0.9703124999999996
 41
46.52273337225305
 46
2.637802694406595
 71
     6
 72
     1
  1
{\fArial|b0|i0|c0|p34;MINI LANDSCAPE DRIPLINE - SHRUB RING}
  7
Hunter
 73
     1
 44
1.0
  0
MTEXT
  5
A06C7
330
1F
100
AcDbEntity
  8
HI Text
100
AcDbMText
 10
275.3911778794421
 20
-33.11402118104743
 30
0.0
 40
0.5624999999999999
 41
0.0
 46
0.0
 71
     6
 72
     1
  1
{\fArial|b0|i0|c0|p34;NOT TO SCALE}
  7
Hunter
 73
     1
 44
1.0
  0
MTEXT
  5
A06C8
330
1F
100
AcDbEntity
  8
HI Text
100
AcDbMText
 10
243.1701199125431
 20
-32.56602076348086
 30
0.0
 40
1.455468749999999
 41
0.0
 46
0.0
 71
     6
 72
     1
  1
{\fArial|b0|i0|c0|p34;XX}
  7
Hunter
 73
     1
 44
1.0
  0
MTEXT
  5
A2287
102
{ACAD_XDICTIONARY
360
A2288
102
}
330
1F
100
AcDbEntity
  8
HI Text
100
AcDbMText
 10
248.1664987639906
 20
-32.87685370881217
 30
0.0
 40
0.9703124999999996
 41
33.6762967440676
 46
0.0
 71
     1
 72
     1
  1
{\fArial|b0|i0|c0|p34;HM.MLD.03}
  7
Hunter
 73
     1
 44
1.0
  0
HATCH
  5
AC973
330
1F
100
AcDbEntity
  8
HI Text
100
AcDbHatch
 10
0.0
 20
0.0
 30
0.0
210
0.0
220
0.0
230
1.0
  2
SOLID
 70
     1
 71
     1
 91
       10
 92
        1
 93
        9
 72
     1
 10
246.0280937864766
 20
-33.12996524600499
 11
246.3085292192825
 21
-32.88307159365013
 72
     1
 10
246.3085292192825
 20
-32.88307159365013
 11
246.3085292192825
 21
-33.07606186308428
 72
     1
 10
246.3085292192825
 20
-33.07606186308428
 11
246.3922301244388
 21
-33.07606186308428
 72
     1
 10
246.3922301244388
 20
-33.07606186308428
 11
246.3922301244389
 21
-33.12996524600499
 72
     1
 10
246.3922301244389
 20
-33.12996524600499
 11
246.3085292192825
 21
-33.12996524600499
 72
     1
 10
246.3085292192825
 20
-33.12996524600499
 11
246.3085292192825
 21
-33.56721877454184
 72
     1
 10
246.3085292192825
 20
-33.56721877454184
 11
246.0999465636329
 21
-33.56721877454184
 72
     1
 10
246.0999465636329
 20
-33.56721877454184
 11
246.0999465636329
 21
-33.12996524600499
 72
     1
 10
246.0999465636329
 20
-33.12996524600499
 11
246.0280937864766
 21
-33.12996524600499
 97
        1
330
A06C5
 92
        1
 93
        4
 72
     1
 10
245.7974461932667
 20
-33.56721877454184
 11
245.5888635376171
 21
-33.56721877454184
 72
     1
 10
245.5888635376171
 20
-33.56721877454184
 11
245.5888635376171
 21
-33.07606186308428
 72
     1
 10
245.5888635376171
 20
-33.07606186308428
 11
245.7974461932667
 21
-33.07606186308428
 72
     1
 10
245.7974461932667
 20
-33.07606186308428
 11
245.7974461932667
 21
-33.56721877454184
 97
        1
330
A06C4
 92
        1
 93
       12
 72
     1
 10
244.7762057672375
 20
-33.22170143805636
 11
244.7762057672375
 21
-33.56721877454184
 72
     1
 10
244.7762057672375
 20
-33.56721877454184
 11
245.0307625655984
 21
-33.56721877454184
 72
     1
 10
245.0307625655984
 20
-33.56721877454184
 11
245.0307625655984
 21
-32.87685370881217
 72
     1
 10
245.0307625655984
 20
-32.87685370881217
 11
244.7762057672375
 21
-32.87685370881217
 72
     1
 10
244.7762057672375
 20
-32.87685370881217
 11
244.7762057672376
 21
-33.15775394651693
 72
     1
 10
244.7762057672376
 20
-33.15775394651693
 11
244.708134585565
 21
-33.15775394651693
 72
     1
 10
244.708134585565
 20
-33.15775394651693
 11
244.7081345855652
 21
-32.87685370881217
 72
     1
 10
244.7081345855652
 20
-32.87685370881217
 11
244.4535777872042
 21
-32.87685370881217
 72
     1
 10
244.4535777872042
 20
-32.87685370881217
 11
244.4535777872042
 21
-33.56721877454184
 72
     1
 10
244.4535777872042
 20
-33.56721877454184
 11
244.7081345855651
 21
-33.56721877454184
 72
     1
 10
244.7081345855651
 20
-33.56721877454184
 11
244.7081345855651
 21
-33.22170143805636
 72
     1
 10
244.7081345855651
 20
-33.22170143805636
 11
244.7762057672375
 21
-33.22170143805636
 97
        1
330
A06C3
 92
        1
 93
        6
 72
     2
 10
246.5918571663231
 20
-33.21115141028619
 40
0.3557288469148716
 50
269.9999999998535
 51
311.0226094260913
 73
     1
 72
     1
 10
246.8253422114763
 20
-33.47953126462917
 11
246.8253422114664
 21
-33.4144553442629
 72
     2
 10
246.5918571663127
 20
-33.18369751339883
 40
0.3282749500274726
 50
44.66341740662996
 51
94.35762720154512
 73
     0
 72
     1
 10
246.5669142965855
 20
-33.51102349169158
 11
246.5669142965849
 21
-33.07640038042511
 72
     2
 10
246.5798042359796
 20
-33.32164031881305
 40
0.2455784557287557
 50
93.00872752319206
 51
266.9912724769674
 73
     1
 72
     1
 10
246.5669142965856
 20
-33.56688025720103
 11
246.5918571663222
 21
-33.56688025720107
 97
        1
330
A06C2
 92
        1
 93
        4
 72
     1
 10
246.8581369853379
 20
-33.56721877453452
 11
246.8581369853379
 21
-33.07606186307696
 72
     1
 10
246.8581369853379
 20
-33.07606186307696
 11
247.0667196409876
 21
-33.07606186307696
 72
     1
 10
247.0667196409876
 20
-33.07606186307696
 11
247.0667196409876
 21
-33.56721877453452
 72
     1
 10
247.0667196409876
 20
-33.56721877453452
 11
246.8581369853379
 21
-33.56721877453452
 97
        1
330
A06C1
 92
        1
 93
        5
 72
     1
 10
245.8444247468398
 20
-33.07606186308428
 11
245.8444247468398
 21
-33.56721877454184
 72
     1
 10
245.8444247468398
 20
-33.56721877454184
 11
246.0530074024894
 21
-33.56721877454184
 72
     1
 10
246.0530074024894
 20
-33.56721877454184
 11
246.0530074024894
 21
-33.23103104617313
 72
     2
 10
245.8980382194006
 20
-33.23103104617313
 40
0.1549691830888378
 50
0.0
 51
89.99999999998948
 73
     1
 72
     1
 10
245.8980382194006
 20
-33.07606186308432
 11
245.8444247468398
 21
-33.07606186308428
 97
        1
330
A06C0
 92
        1
 93
        5
 72
     1
 10
245.3333023283942
 20
-33.07606186308428
 11
245.541884984044
 21
-33.07606186308428
 72
     1
 10
245.541884984044
 20
-33.07606186308428
 11
245.541884984044
 21
-33.41224959145298
 72
     2
 10
245.3869158009551
 20
-33.41224959145294
 40
0.1549691830888662
 50
0.0000000000131293
 51
90.00000000001049
 73
     0
 72
     1
 10
245.386915800955
 20
-33.5672187745418
 11
245.3333023283942
 21
-33.56721877454184
 72
     1
 10
245.3333023283942
 20
-33.56721877454184
 11
245.3333023283942
 21
-33.07606186308428
 97
        1
330
A06BF
 92
        1
 93
        5
 72
     1
 10
245.2327103022603
 20
-33.56721877454184
 11
245.2863237748211
 21
-33.56721877454184
 72
     1
 10
245.2863237748211
 20
-33.56721877454184
 11
245.2863237748211
 21
-33.07606186308428
 72
     1
 10
245.2863237748211
 20
-33.07606186308428
 11
245.0777411191715
 21
-33.07606186308428
 72
     1
 10
245.0777411191715
 20
-33.07606186308428
 11
245.0777411191715
 21
-33.41224959145298
 72
     2
 10
245.2327103022603
 20
-33.412249591453
 40
0.1549691830888094
 50
179.9999999999895
 51
270.0
 73
     1
 97
        1
330
A06BE
 92
        1
 93
        5
 72
     1
 10
246.8346674047631
 20
-33.32164031881274
 11
246.8346674047705
 21
-33.26368987270696
 72
     2
 10
246.629163084957
 20
-33.28154568608539
 40
0.2062785871906857
 50
4.965831443762442
 51
83.99132804350747
 73
     1
 72
     1
 10
246.6507561185306
 20
-33.07640038042506
 11
246.6168000360587
 21
-33.07640038041154
 72
     1
 10
246.6168000360587
 20
-33.07640038041154
 11
246.6168000360587
 21
-33.32164031881274
 72
     1
 10
246.6168000360587
 20
-33.32164031881274
 11
246.8346674047631
 21
-33.32164031881274
 97
        1
330
A06BD
 92
        1
 93
        1
 72
     2
 10
247.1897932986953
 20
-33.17566594021305
 40
0.0996040771360683
 50
0.0
 51
360.0
 73
     1
 97
        1
330
A06BC
 75
     1
 76
     1
 98
        1
 10
336.8008119542006
 20
17.18620614294227
450
        0
451
        0
460
0.0
461
0.0
452
        0
462
1.0
453
        2
463
0.0
 63
     5
421
      255
463
1.0
 63
     2
421
 16776960
470
LINEAR
1001
GradientColor1ACI
1070
     5
1001
GradientColor2ACI
1070
     2
1001
ACAD
1010
-92.3472341669964
1020
-50.75342491748411
1030
0.0
  0
HATCH
  5
AE5BF
330
1F
100
AcDbEntity
  8
HI HATCH FILL
100
AcDbHatch
 10
0.0
 20
0.0
 30
0.0
210
0.0
220
0.0
230
1.0
  2
ANSI36
 70
     0
 71
     1
 91
        1
 92
        1
 93
       21
 72
     1
 10
248.3403678340921
 20
0.1179545735153056
 11
248.3631740050836
 21
0.3657472199274707
 72
     1
 10
248.3631740050836
 20
0.3657472199274707
 11
248.3213288883168
 21
0.5307323648199258
 72
     1
 10
248.3213288883168
 20
0.5307323648199258
 11
248.2756723677865
 21
0.7093387439040271
 72
     1
 10
248.2756723677865
 20
0.7093387439040271
 11
248.1285952422562
 21
0.7961236892696775
 72
     1
 10
248.1285952422562
 20
0.7961236892696775
 11
247.9394744833699
 21
0.9834788149930773
 72
     1
 10
247.9394744833699
 20
0.9834788149930773
 11
247.6904390081192
 21
1.02501515853271
 72
     1
 10
247.6904390081192
 20
1.02501515853271
 11
247.4443785564067
 21
0.9219245269483167
 72
     1
 10
247.4443785564067
 20
0.9219245269483167
 11
247.2610847757865
 21
0.8933911040231805
 72
     1
 10
247.2610847757865
 20
0.8933911040231805
 11
247.0803021439578
 21
0.7093387439040271
 72
     1
 10
247.0803021439578
 20
0.7093387439040271
 11
247.0803021439578
 21
0.5058106945145937
 72
     1
 10
247.0803021439578
 20
0.5058106945145937
 11
247.0138926073913
 21
0.2815143035822984
 72
     1
 10
247.0138926073913
 20
0.2815143035822984
 11
247.0436683745316
 21
0.1212148958482544
 72
     1
 10
247.0436683745316
 20
0.1212148958482544
 11
247.1218612476618
 21
-0.0581086047488384
 72
     1
 10
247.1218612476618
 20
-0.0581086047488384
 11
247.2670787145367
 21
-0.113081129816976
 72
     1
 10
247.2670787145367
 20
-0.113081129816976
 11
247.4206506602691
 21
-0.2999945059721085
 72
     1
 10
247.4206506602691
 20
-0.2999945059721085
 11
247.6157283512002
 21
-0.3124555108977915
 72
     1
 10
247.6157283512002
 20
-0.3124555108977915
 11
247.7900531695321
 21
-0.2792265039753943
 72
     1
 10
247.7900531695321
 20
-0.2792265039753943
 11
248.0243380302704
 21
-0.2374321053458743
 72
     1
 10
248.0243380302704
 20
-0.2374321053458743
 11
248.1636064541266
 21
-0.1670781387361444
 72
     1
 10
248.1636064541266
 20
-0.1670781387361444
 11
248.2590699836449
 21
-0.0341617715001803
 72
     1
 10
248.2590699836449
 20
-0.0341617715001803
 11
248.3403678340921
 21
0.1179545735153056
 97
        1
330
AE60C
 75
     0
 76
     1
 52
-90.00000000000001
 41
1.5
 77
     0
 78
     1
 53
315.0
 43
240.7590810119433
 44
84.91170182212618
 45
0.3646019340493135
 46
-0.0994368911043583
 79
     4
 49
0.46875
 49
-0.09375
 49
0.0
 49
-0.09375
 98
        1
 10
240.7590810119433
 20
84.91170182212618
  0
LWPOLYLINE
  5
AE5C0
330
1F
100
AcDbEntity
  8
HI Detail 3
100
AcDbPolyline
 90
        2
 70
     0
 43
0.0
 10
258.8292307173816
 20
0.0560507871400375
 10
258.8292306425421
 20
0.6208728729955624
  0
LINE
  5
AE5C1
330
1F
100
AcDbEntity
  8
HI Detail 3
100
AcDbLine
 10
258.3838994673816
 20
0.1072723602985945
 30
0.0
 11
258.3838994673816
 21
0.5760598602985852
 31
0.0
  0
LINE
  5
AE5C2
330
1F
100
AcDbEntity
  8
HI Detail 3
100
AcDbLine
 10
258.6182932173816
 20
0.0838161102986135
 30
0.0
 11
258.6182932173816
 21
0.5995161102986231
 31
0.0
  0
ARC
  5
AE5DD
330
1F
100
AcDbEntity
  8
HI Detail 3
100
AcDbCircle
 10
259.6758547401622
 20
6.136401900144221
 30
0.0
 40
0.2554132626990042
100
AcDbArc
 50
207.5977860000001
 51
332.4022140000013
  0
ARC
  5
AE5DE
330
1F
100
AcDbEntity
  8
HI Detail 3
100
AcDbCircle
 10
259.2231478263598
 20
5.899756607456708
 30
0.0
 40
0.2554132626990042
100
AcDbArc
 50
27.59778599999872
 51
152.4022140000013
  0
ARC
  5
AE5DF
330
1F
100
AcDbEntity
  8
HI Detail 3
100
AcDbCircle
 10
259.6758547401622
 20
5.899756607456708
 30
0.0
 40
0.2554132626990042
100
AcDbArc
 50
27.59778599999872
 51
152.4022140000013
  0
LINE
  5
AE5E0
330
1F
100
AcDbEntity
  8
HI Detail 3
100
AcDbLine
 10
259.9022064808992
 20
6.018081686065727
 30
0.0
 11
259.9022064808992
 21
-5.346557100937957
 31
0.0
  0
LINE
  5
AE5E1
330
1F
100
AcDbEntity
  8
HI Detail 3
100
AcDbLine
 10
258.9967960856228
 20
6.018081686065784
 30
0.0
 11
258.9967960856228
 21
-5.346561965468538
 31
0.0
  0
ARC
  5
AE5E2
330
1F
100
AcDbEntity
  8
HI Deatil 2
100
AcDbCircle
 10
247.6843691376165
 20
0.3357598602985945
 30
0.0
 40
6.368385711489452
100
AcDbArc
 50
21.72598596745653
 51
38.59136375960066
  0
ARC
  5
AE5E3
330
1F
100
AcDbEntity
  8
HI Deatil 2
100
AcDbCircle
 10
247.6843691376165
 20
0.3357598602985945
 30
0.0
 40
6.368385711489452
100
AcDbArc
 50
40.20275401194861
 51
47.14127503353047
  0
ARC
  5
AE5E4
330
1F
100
AcDbEntity
  8
HI Deatil 2
100
AcDbCircle
 10
247.6843691376165
 20
0.3357598602985945
 30
0.0
 40
6.368385711489452
100
AcDbArc
 50
48.75266528587924
 51
98.59136375959879
  0
ARC
  5
AE5E5
330
1F
100
AcDbEntity
  8
HI Deatil 2
100
AcDbCircle
 10
247.6843691376165
 20
0.3357598602985945
 30
0.0
 40
6.368385711489452
100
AcDbArc
 50
100.2027540119485
 51
107.1412750335305
  0
ARC
  5
AE5E6
330
1F
100
AcDbEntity
  8
HI Deatil 2
100
AcDbCircle
 10
247.6843691376165
 20
0.3357598602985945
 30
0.0
 40
6.368385711489452
100
AcDbArc
 50
108.7526652858785
 51
158.5913637595996
  0
ARC
  5
AE5E7
330
1F
100
AcDbEntity
  8
HI Deatil 2
100
AcDbCircle
 10
247.6843691376165
 20
0.3357598602985945
 30
0.0
 40
6.368385711489452
100
AcDbArc
 50
160.2027540119476
 51
167.1412750335314
  0
ARC
  5
AE5E8
330
1F
100
AcDbEntity
  8
HI Deatil 2
100
AcDbCircle
 10
247.6843691376165
 20
0.3357598602985945
 30
0.0
 40
6.368385711489452
100
AcDbArc
 50
168.7526652858787
 51
218.5913637596006
  0
ARC
  5
AE5E9
330
1F
100
AcDbEntity
  8
HI Deatil 2
100
AcDbCircle
 10
247.6843691376165
 20
0.3357598602985945
 30
0.0
 40
6.368385711489452
100
AcDbArc
 50
220.2027540119486
 51
227.1412750335305
  0
ARC
  5
AE5EA
330
1F
100
AcDbEntity
  8
HI Deatil 2
100
AcDbCircle
 10
247.6843691376165
 20
0.3357598602985945
 30
0.0
 40
6.368385711489452
100
AcDbArc
 50
228.7526652858792
 51
278.5913637595988
  0
ARC
  5
AE5EB
330
1F
100
AcDbEntity
  8
HI Deatil 2
100
AcDbCircle
 10
247.6843691376165
 20
0.3357598602985945
 30
0.0
 40
6.368385711489452
100
AcDbArc
 50
280.2027540119485
 51
287.1412750335305
  0
ARC
  5
AE5EC
330
1F
100
AcDbEntity
  8
HI Deatil 2
100
AcDbCircle
 10
247.6843691376165
 20
0.3357598602985945
 30
0.0
 40
6.368385711489452
100
AcDbArc
 50
288.7526652858816
 51
338.5913637595996
  0
ARC
  5
AE5ED
330
1F
100
AcDbEntity
  8
HI Deatil 2
100
AcDbCircle
 10
247.6843691376165
 20
0.3357598602985945
 30
0.0
 40
6.368385711489452
100
AcDbArc
 50
340.2027540119476
 51
347.1412750335314
  0
ARC
  5
AE5EE
330
1F
100
AcDbEntity
  8
HI Deatil 2
100
AcDbCircle
 10
249.8202019443723
 20
-0.0746322604913701
 30
0.0
 40
4.193551757482537
100
AcDbArc
 50
348.5603935550183
 51
352.0754982106276
  0
LWPOLYLINE
  5
AE5EF
330
1F
100
AcDbEntity
  8
HI Deatil 2
100
AcDbPolyline
 90
        3
 70
     0
 43
0.0
 10
257.4855740464421
 20
0.0369036102986229
 10
258.3000307173816
 20
0.0369036102986229
 10
258.3676866950006
 20
-0.0043558347519479
  0
LWPOLYLINE
  5
AE5F0
330
1F
100
AcDbEntity
  8
HI Deatil 2
100
AcDbPolyline
 90
        3
 70
     0
 43
0.0
 10
258.4190858822108
 20
-0.0029321808120812
 10
258.4681057173816
 20
0.0369036102986229
 10
258.5862889683274
 20
-0.0249897732786053
  0
LWPOLYLINE
  5
AE5F1
330
1F
100
AcDbEntity
  8
HI Deatil 2
100
AcDbPolyline
 90
        4
 70
     0
 43
0.0
 10
258.6532405873713
 20
-0.0235077264381971
 10
258.7330432173816
 20
0.0369036102986229
 10
258.8292307173816
 20
0.0369036102986229
 10
258.8292307173816
 20
0.0560507871400375
  0
LWPOLYLINE
  5
AE5F2
330
1F
100
AcDbEntity
  8
HI Deatil 2
100
AcDbPolyline
 90
        4
 70
     0
 43
0.0
 10
258.8292307173816
 20
0.6208728729963582
 10
258.8292307173816
 20
0.6346161102985946
 10
258.7330432173816
 20
0.6346161102985946
 10
258.645662632679
 20
0.7025379933658087
  0
LWPOLYLINE
  5
AE5F3
330
1F
100
AcDbEntity
  8
HI Deatil 2
100
AcDbPolyline
 90
        3
 70
     0
 43
0.0
 10
258.5727514092766
 20
0.7035977509375755
 10
258.4802557173816
 20
0.646259860298585
 10
258.4109175922865
 20
0.6885926103566931
  0
LWPOLYLINE
  5
AE5F4
330
1F
100
AcDbEntity
  8
HI Deatil 2
100
AcDbPolyline
 90
        3
 70
     0
 43
0.0
 10
258.3552347027031
 20
0.6873503029908079
 10
258.2880494673816
 20
0.646259860298585
 10
257.496804224139
 20
0.646259860298585
  0
ARC
  5
AE5F5
330
1F
100
AcDbEntity
  8
HI Deatil 2
100
AcDbCircle
 10
258.3839335308427
 20
0.6495416899290376
 30
0.0
 40
0.0474669775554334
100
AcDbArc
 50
55.35565064678039
 51
127.2005084574734
  0
ARC
  5
AE5F6
330
1F
100
AcDbEntity
  8
HI Deatil 2
100
AcDbCircle
 10
258.3925483912795
 20
0.0266071932471732
 30
0.0
 40
0.0397091053128084
100
AcDbArc
 50
231.2373528630601
 51
311.9357911824918
  0
ARC
  5
AE5F7
330
1F
100
AcDbEntity
  8
HI Deatil 2
100
AcDbCircle
 10
258.6183225558263
 20
0.040903778948973
 30
0.0
 40
0.0732673935200399
100
AcDbArc
 50
244.0736921384424
 51
298.4625023450258
  0
ARC
  5
AE5F8
330
1F
100
AcDbEntity
  8
HI Deatil 2
100
AcDbCircle
 10
258.6085066942782
 20
0.6548854596789511
 30
0.0
 40
0.0604262172009144
100
AcDbArc
 50
52.05551693379605
 51
126.2790231292141
  0
LWPOLYLINE
  5
AE5F9
330
1F
100
AcDbEntity
  8
HI Deatil 2
100
AcDbPolyline
 90
        2
 70
     0
 43
0.0
 10
258.9967960856228
 20
0.0560507871400375
 10
258.8292307173816
 20
0.0560507871400375
  0
LWPOLYLINE
  5
AE5FA
330
1F
100
AcDbEntity
  8
HI Deatil 2
100
AcDbPolyline
 90
        2
 70
     0
 43
0.0
 10
258.996838648422
 20
0.6208746465636637
 10
258.8292307173816
 20
0.6208728729963582
  0
ARC
  5
AE5FB
330
1F
100
AcDbEntity
  8
HI Deatil 2
100
AcDbCircle
 10
247.6843691376165
 20
0.3357598602985945
 30
0.0
 40
6.967834092612673
100
AcDbArc
 50
21.79586647984002
 51
38.64830122793226
  0
ARC
  5
AE5FC
330
1F
100
AcDbEntity
  8
HI Deatil 2
100
AcDbCircle
 10
247.6843691376165
 20
0.3357598602985945
 30
0.0
 40
6.967834092612673
100
AcDbArc
 50
40.14581654361456
 51
47.19821250186444
  0
ARC
  5
AE5FD
330
1F
100
AcDbEntity
  8
HI Deatil 2
100
AcDbCircle
 10
247.6843691376165
 20
0.3357598602985945
 30
0.0
 40
6.967834092612673
100
AcDbArc
 50
48.69572781754491
 51
98.6483012279317
  0
ARC
  5
AE5FE
330
1F
100
AcDbEntity
  8
HI Deatil 2
100
AcDbCircle
 10
247.6843691376165
 20
0.3357598602985945
 30
0.0
 40
6.967834092612673
100
AcDbArc
 50
100.1458165436158
 51
107.1982125018652
  0
ARC
  5
AE5FF
330
1F
100
AcDbEntity
  8
HI Deatil 2
100
AcDbCircle
 10
247.6843691376165
 20
0.3357598602985945
 30
0.0
 40
6.967834092612673
100
AcDbArc
 50
108.6957278175449
 51
158.6483012279333
  0
ARC
  5
AE600
330
1F
100
AcDbEntity
  8
HI Deatil 2
100
AcDbCircle
 10
247.6843691376165
 20
0.3357598602985945
 30
0.0
 40
6.967834092612673
100
AcDbArc
 50
160.1458165436153
 51
167.1982125018656
  0
ARC
  5
AE601
330
1F
100
AcDbEntity
  8
HI Deatil 2
100
AcDbCircle
 10
247.6843691376165
 20
0.3357598602985945
 30
0.0
 40
6.967834092612673
100
AcDbArc
 50
168.6957278175457
 51
218.6483012279322
  0
ARC
  5
AE602
330
1F
100
AcDbEntity
  8
HI Deatil 2
100
AcDbCircle
 10
247.6843691376165
 20
0.3357598602985945
 30
0.0
 40
6.967834092612673
100
AcDbArc
 50
220.1458165436146
 51
227.1982125018645
  0
ARC
  5
AE603
330
1F
100
AcDbEntity
  8
HI Deatil 2
100
AcDbCircle
 10
247.6843691376165
 20
0.3357598602985945
 30
0.0
 40
6.967834092612673
100
AcDbArc
 50
228.6957278175449
 51
278.648301227935
  0
ARC
  5
AE604
330
1F
100
AcDbEntity
  8
HI Deatil 2
100
AcDbCircle
 10
247.6843691376165
 20
0.3357598602985945
 30
0.0
 40
6.967834092612673
100
AcDbArc
 50
280.1458165436159
 51
287.1982125018651
  0
ARC
  5
AE605
330
1F
100
AcDbEntity
  8
HI Deatil 2
100
AcDbCircle
 10
247.6843691376165
 20
0.3357598602985945
 30
0.0
 40
6.967834092612673
100
AcDbArc
 50
288.6957278175449
 51
338.6483012279334
  0
ARC
  5
AE606
330
1F
100
AcDbEntity
  8
HI Deatil 2
100
AcDbCircle
 10
247.6843691376165
 20
0.3357598602985945
 30
0.0
 40
6.967834092612673
100
AcDbArc
 50
340.1458165436153
 51
347.1982125018657
  0
ARC
  5
AE607
330
1F
100
AcDbEntity
  8
HI Deatil 2
100
AcDbCircle
 10
247.6843691376165
 20
0.3357598602985945
 30
0.0
 40
6.967834092612673
100
AcDbArc
 50
348.6957278175457
 51
351.1825254769259
  0
ARC
  5
AE608
330
1F
100
AcDbEntity
  8
HI Detail 3
100
AcDbCircle
 10
259.6758547401622
 20
-5.464882179546975
 30
0.0
 40
0.2554132626990042
100
AcDbArc
 50
27.59778600000017
 51
152.4022139999998
  0
ARC
  5
AE609
330
1F
100
AcDbEntity
  8
HI Detail 3
100
AcDbCircle
 10
259.2231478263598
 20
-5.228236886859519
 30
0.0
 40
0.2554132626990042
100
AcDbArc
 50
207.5977859999987
 51
332.4022140000013
  0
ARC
  5
AE60A
330
1F
100
AcDbEntity
  8
HI Detail 3
100
AcDbCircle
 10
259.6758547401622
 20
-5.228236886859519
 30
0.0
 40
0.2554132626990042
100
AcDbArc
 50
207.5977859999987
 51
332.4022140000013
  0
LWPOLYLINE
  5
AE60C
102
{ACAD_REACTORS
330
AE5BF
102
}
330
1F
100
AcDbEntity
  8
HI Detail 3
100
AcDbPolyline
 90
       21
 70
     1
 43
0.0
 10
248.3403678340921
 20
0.1179545735153056
 10
248.3631740050836
 20
0.3657472199274707
 10
248.3213288883168
 20
0.5307323648199258
 10
248.2756723677865
 20
0.7093387439040271
 10
248.1285952422562
 20
0.7961236892696775
 10
247.9394744833699
 20
0.9834788149930773
 10
247.6904390081192
 20
1.02501515853271
 10
247.4443785564067
 20
0.9219245269483167
 10
247.2610847757865
 20
0.8933911040231805
 10
247.0803021439578
 20
0.7093387439040271
 10
247.0803021439578
 20
0.5058106945145937
 10
247.0138926073913
 20
0.2815143035822984
 10
247.0436683745316
 20
0.1212148958482544
 10
247.1218612476618
 20
-0.0581086047488384
 10
247.2670787145367
 20
-0.113081129816976
 10
247.4206506602691
 20
-0.2999945059721085
 10
247.6157283512002
 20
-0.3124555108977915
 10
247.7900531695321
 20
-0.2792265039753943
 10
248.0243380302704
 20
-0.2374321053458743
 10
248.1636064541266
 20
-0.1670781387361444
 10
248.2590699836449
 20
-0.0341617715001803
  0
LWPOLYLINE
  5
AE60D
330
1F
100
AcDbEntity
  8
HI Detail 3
100
AcDbPolyline
 90
       74
 70
     1
 43
0.0
 10
243.1213382617257
 20
-2.452546611889147
 10
243.1566860258369
 20
-3.04736186409076
 10
243.6705558619543
 20
-3.479901808117517
 10
243.9426798701546
 20
-4.020579129405518
 10
244.3616764549875
 20
-3.974858439546267
 10
244.5829997234061
 20
-4.404731292351016
 10
245.4593141313217
 20
-4.824812975927386
 10
246.1083587319648
 20
-4.981606052074027
 10
247.2361630063272
 20
-5.208068769030433
 10
247.2836681836603
 20
-4.661298322536367
 10
247.6702218266217
 20
-4.723371344289574
 10
247.9913033390523
 20
-5.068582906668893
 10
248.3277014352598
 20
-4.882000607500515
 10
249.1106057199954
 20
-4.856844431319814
 10
249.2944947810017
 20
-5.052289615458221
 10
249.7353725615884
 20
-4.923093845413262
 10
249.9769950711827
 20
-4.509501692641208
 10
250.7280406722459
 20
-3.971375407131972
 10
251.0618588188536
 20
-4.091487759043616
 10
251.3223503445858
 20
-3.363193937966457
 10
251.7361506469899
 20
-3.564772271209619
 10
252.1002745501463
 20
-3.446986975775473
 10
252.0280745384524
 20
-2.933649116920292
 10
251.9280208622582
 20
-2.3756521070718
 10
252.1205708890648
 20
-2.159122065706242
 10
252.5583012705599
 20
-2.017526850841278
 10
252.8726040056677
 20
-1.786033991043495
 10
252.7396659145017
 20
-1.156314333964417
 10
252.3790683340906
 20
-0.5884350201583857
 10
252.5463671996666
 20
-0.1212429728869893
 10
253.1122136838632
 20
0.0617947094341389
 10
253.2748239566507
 20
0.3976466001703329
 10
253.1337412361273
 20
0.9067101637818097
 10
253.2806783555693
 20
1.072262278375603
 10
253.107258436197
 20
1.535459159185819
 10
252.6877579256805
 20
1.726457447932659
 10
252.2485697461182
 20
2.367095285189748
 10
252.7012526072051
 20
2.77981014249616
 10
252.068479040218
 20
3.288417615993552
 10
251.698191312948
 20
3.83332038648291
 10
251.0083930288594
 20
3.812962738638418
 10
250.9233776441755
 20
4.239844776470363
 10
251.0009303372575
 20
4.656938179094879
 10
250.3156167342906
 20
4.952013358351052
 10
249.7764276910475
 20
4.978234983487311
 10
249.4777312227209
 20
5.318293157753203
 10
249.2917861179019
 20
5.564999810351764
 10
248.6797780795745
 20
5.378832343628545
 10
248.5509788484653
 20
5.667628679154802
 10
248.2200120678539
 20
5.560568912698158
 10
247.8428169510511
 20
5.851630296696271
 10
247.2687589509331
 20
5.949187778828786
 10
246.7205008952863
 20
5.748235156831981
 10
246.4608125168402
 20
5.67603424084109
 10
246.2699372916453
 20
5.35464369196427
 10
245.8670091169354
 20
5.542963922170486
 10
245.4777602114049
 20
5.290797900179597
 10
245.382815874107
 20
4.932845946797073
 10
244.9579648405477
 20
4.606344954442704
 10
244.3449590703555
 20
4.771652065429407
 10
243.4975562101025
 20
4.151459549338795
 10
243.1001054638525
 20
3.736372444085134
 10
242.8026674180832
 20
2.790826414917148
 10
242.631770148777
 20
2.244365712346734
 10
242.8676384760949
 20
1.768086017500309
 10
242.6904232683703
 20
1.557267628826025
 10
242.0977202793072
 20
1.334843592049168
 10
241.8960562360113
 20
0.7886630791644507
 10
242.4515804096245
 20
0.2725240031836051
 10
242.2607760375346
 20
-0.0859511992607054
 10
242.014430977466
 20
-0.4623924739278778
 10
242.2402408215527
 20
-1.034021901366827
 10
242.3045620042682
 20
-1.422531910583813
 10
242.9180893902078
 20
-1.991539049096161
  0
LWPOLYLINE
  5
AE60E
330
1F
100
AcDbEntity
  8
HI Deatil 2
100
AcDbPolyline
 90
        2
 70
     0
 43
0.0
 10
252.2835415651657
 20
5.570100785749161
 10
252.3460599430204
 20
5.566902590495828
  0
LWPOLYLINE
  5
AE60F
330
1F
100
AcDbEntity
  8
HI Deatil 2
100
AcDbPolyline
 90
        2
 70
     0
 43
0.0
 10
252.4187629177072
 20
5.448120125109142
 10
252.4091617835129
 20
5.509979596854691
  0
ARC
  5
AE610
330
1F
100
AcDbEntity
  8
HI Deatil 2
100
AcDbCircle
 10
252.3403577642172
 20
5.497144265035387
 30
0.0
 40
0.0699909909499133
100
AcDbArc
 50
10.56701719165021
 51
85.32692312777934
  0
LWPOLYLINE
  5
AE611
330
1F
100
AcDbEntity
  8
HI Detail 3
100
AcDbPolyline
 90
        2
 70
     0
 43
0.0
 10
252.284568953274
 20
5.435299719901422
 10
252.0170111840517
 20
5.138699232189765
  0
LWPOLYLINE
  5
AE612
330
1F
100
AcDbEntity
  8
HI Deatil 2
100
AcDbPolyline
 90
        2
 70
     0
 43
0.0
 10
251.8831148723617
 20
5.123961070070606
 10
251.8924183538129
 20
5.064019355236553
  0
LWPOLYLINE
  5
AE613
330
1F
100
AcDbEntity
  8
HI Deatil 2
100
AcDbPolyline
 90
        2
 70
     0
 43
0.0
 10
252.0161003879525
 20
5.003997316251997
 10
251.9555201943054
 20
5.007096361595358
  0
ARC
  5
AE614
330
1F
100
AcDbEntity
  8
HI Deatil 2
100
AcDbCircle
 10
251.9612223731086
 20
5.076854687055799
 30
0.0
 40
0.0699909909499133
100
AcDbArc
 50
190.5670171916304
 51
265.3269231277597
  0
LWPOLYLINE
  5
AE615
330
1F
100
AcDbEntity
  8
HI Deatil 2
100
AcDbPolyline
 90
        2
 70
     0
 43
0.0
 10
246.4569577963627
 20
7.194635376120203
 10
246.4984202067193
 20
7.241535744454267
  0
LWPOLYLINE
  5
AE616
330
1F
100
AcDbEntity
  8
HI Deatil 2
100
AcDbPolyline
 90
        2
 70
     0
 43
0.0
 10
246.6366240975085
 20
7.224369464065148
 10
246.5822625442177
 20
7.255411331700145
  0
ARC
  5
AE617
330
1F
100
AcDbEntity
  8
HI Deatil 2
100
AcDbCircle
 10
246.5494222159685
 20
7.193603147334016
 30
0.0
 40
0.0699909909499133
100
AcDbArc
 50
62.01710591771843
 51
136.7770118538482
  0
LWPOLYLINE
  5
AE618
330
1F
100
AcDbEntity
  8
HI Detail 3
100
AcDbPolyline
 90
        2
 70
     0
 43
0.0
 10
246.5630213340765
 20
7.111431356700222
 10
246.6282413959999
 20
6.717343355481318
  0
LWPOLYLINE
  5
AE619
330
1F
100
AcDbEntity
  8
HI Deatil 2
100
AcDbPolyline
 90
        2
 70
     0
 43
0.0
 10
246.5563239402758
 20
6.603442893370697
 10
246.6090001858586
 20
6.573363380481453
  0
LWPOLYLINE
  5
AE61A
330
1F
100
AcDbEntity
  8
HI Deatil 2
100
AcDbPolyline
 90
        2
 70
     0
 43
0.0
 10
246.7330195230597
 20
6.63268533875123
 10
246.692842523357
 20
6.587238967727273
  0
ARC
  5
AE61B
330
1F
100
AcDbEntity
  8
HI Deatil 2
100
AcDbCircle
 10
246.6418405141079
 20
6.635171564847524
 30
0.0
 40
0.0699909909499133
100
AcDbArc
 50
242.0171059177002
 51
316.7770118538286
  0
LWPOLYLINE
  5
AE61C
330
1F
100
AcDbEntity
  8
HI Deatil 2
100
AcDbPolyline
 90
        2
 70
     0
 43
0.0
 10
241.130703028893
 20
2.702228215790455
 10
241.1108173236472
 20
2.76158590062846
  0
LWPOLYLINE
  5
AE61D
330
1F
100
AcDbEntity
  8
HI Deatil 2
100
AcDbPolyline
 90
        2
 70
     0
 43
0.0
 10
241.1947857039472
 20
2.872690840759162
 10
241.140721881349
 20
2.841133288437674
  0
ARC
  5
AE61E
330
1F
100
AcDbEntity
  8
HI Deatil 2
100
AcDbCircle
 10
241.1778291750473
 20
2.781788637722229
 30
0.0
 40
0.0699909909499133
100
AcDbArc
 50
122.0171059177181
 51
196.7770118538476
  0
LWPOLYLINE
  5
AE61F
330
1F
100
AcDbEntity
  8
HI Detail 3
100
AcDbPolyline
 90
        2
 70
     0
 43
0.0
 10
241.2557915922646
 20
2.752479924155863
 10
241.6296918436085
 20
2.61191815400852
  0
LWPOLYLINE
  5
AE620
330
1F
100
AcDbEntity
  8
HI Deatil 2
100
AcDbPolyline
 90
        2
 70
     0
 43
0.0
 10
241.6923738094371
 20
2.492685579320607
 10
241.744761554524
 20
2.523264789726681
  0
LWPOLYLINE
  5
AE621
330
1F
100
AcDbEntity
  8
HI Deatil 2
100
AcDbPolyline
 90
        2
 70
     0
 43
0.0
 10
241.7553969002607
 20
2.660329665438212
 10
241.7746661122259
 20
2.602812177535867
  0
ARC
  5
AE622
330
1F
100
AcDbEntity
  8
HI Deatil 2
100
AcDbCircle
 10
241.7076542608258
 20
2.582609440442183
 30
0.0
 40
0.0699909909499133
100
AcDbArc
 50
302.0171059176983
 51
16.77701185382857
  0
LWPOLYLINE
  5
AE623
330
1F
100
AcDbEntity
  8
HI Deatil 2
100
AcDbPolyline
 90
        2
 70
     0
 43
0.0
 10
242.3581143701468
 20
-4.156647300031124
 10
242.2967662545444
 20
-4.144189983527155
  0
LWPOLYLINE
  5
AE624
330
1F
100
AcDbEntity
  8
HI Deatil 2
100
AcDbPolyline
 90
        2
 70
     0
 43
0.0
 10
242.2425307440553
 20
-4.015918763007334
 10
242.2428284747478
 20
-4.078518182963819
  0
ARC
  5
AE625
330
1F
100
AcDbEntity
  8
HI Deatil 2
100
AcDbCircle
 10
242.3127760966953
 20
-4.076054649313164
 30
0.0
 40
0.0699909909499133
100
AcDbArc
 50
182.0171059177194
 51
256.7770118538482
  0
LWPOLYLINE
  5
AE626
330
1F
100
AcDbEntity
  8
HI Detail 3
100
AcDbPolyline
 90
        2
 70
     0
 43
0.0
 10
242.3771393958046
 20
-4.023191572245735
 10
242.6858195852251
 20
-3.769665341174203
  0
LWPOLYLINE
  5
AE627
330
1F
100
AcDbEntity
  8
HI Deatil 2
100
AcDbPolyline
 90
        2
 70
     0
 43
0.0
 10
242.8204190067777
 20
-3.774997453751495
 10
242.8201305062819
 20
-3.71433873045612
  0
LWPOLYLINE
  5
AE628
330
1F
100
AcDbEntity
  8
HI Deatil 2
100
AcDbPolyline
 90
        2
 70
     0
 43
0.0
 10
242.7067465148175
 20
-3.636595813014366
 10
242.7661927264854
 20
-3.648666929892783
  0
ARC
  5
AE629
330
1F
100
AcDbEntity
  8
HI Deatil 2
100
AcDbCircle
 10
242.7501828843344
 20
-3.716802264106718
 30
0.0
 40
0.0699909909499133
100
AcDbArc
 50
2.01710591769974
 51
76.77701185382807
  0
LWPOLYLINE
  5
AE62A
330
1F
100
AcDbEntity
  8
HI Deatil 2
100
AcDbPolyline
 90
        2
 70
     0
 43
0.0
 10
248.9117804788703
 20
-6.523115655522985
 10
248.8703180685137
 20
-6.570016023857021
  0
LWPOLYLINE
  5
AE62B
330
1F
100
AcDbEntity
  8
HI Deatil 2
100
AcDbPolyline
 90
        2
 70
     0
 43
0.0
 10
248.7321141777246
 20
-6.552849743467902
 10
248.7864757310153
 20
-6.583891611102899
  0
ARC
  5
AE62C
330
1F
100
AcDbEntity
  8
HI Deatil 2
100
AcDbCircle
 10
248.8193160592645
 20
-6.522083426736742
 30
0.0
 40
0.0699909909499133
100
AcDbArc
 50
242.0171059177184
 51
316.7770118538483
  0
LWPOLYLINE
  5
AE62D
330
1F
100
AcDbEntity
  8
HI Detail 3
100
AcDbPolyline
 90
        2
 70
     0
 43
0.0
 10
248.8057169411566
 20
-6.439911636102976
 10
248.7404968792331
 20
-6.045823634884072
  0
LWPOLYLINE
  5
AE62E
330
1F
100
AcDbEntity
  8
HI Deatil 2
100
AcDbPolyline
 90
        2
 70
     0
 43
0.0
 10
248.8124143349572
 20
-5.931923172773451
 10
248.7597380893744
 20
-5.901843659884207
  0
LWPOLYLINE
  5
AE62F
330
1F
100
AcDbEntity
  8
HI Deatil 2
100
AcDbPolyline
 90
        2
 70
     0
 43
0.0
 10
248.6357187521733
 20
-5.961165618153984
 10
248.675895751876
 20
-5.915719247130027
  0
ARC
  5
AE630
330
1F
100
AcDbEntity
  8
HI Deatil 2
100
AcDbCircle
 10
248.7268977611251
 20
-5.96365184425025
 30
0.0
 40
0.0699909909499133
100
AcDbArc
 50
62.01710591770023
 51
136.7770118538286
  0
LWPOLYLINE
  5
AE631
330
1F
100
AcDbEntity
  8
HI Deatil 2
100
AcDbPolyline
 90
        2
 70
     0
 43
0.0
 10
254.23803524634
 20
-2.030708495193209
 10
254.2579209515858
 20
-2.090066180031215
  0
LWPOLYLINE
  5
AE632
330
1F
100
AcDbEntity
  8
HI Deatil 2
100
AcDbPolyline
 90
        2
 70
     0
 43
0.0
 10
254.1739525712858
 20
-2.201171120161916
 10
254.228016393884
 20
-2.169613567840428
  0
ARC
  5
AE633
330
1F
100
AcDbEntity
  8
HI Deatil 2
100
AcDbCircle
 10
254.1909091001858
 20
-2.110268917124983
 30
0.0
 40
0.0699909909499133
100
AcDbArc
 50
302.0171059177181
 51
16.7770118538476
  0
LWPOLYLINE
  5
AE634
330
1F
100
AcDbEntity
  8
HI Detail 3
100
AcDbPolyline
 90
        2
 70
     0
 43
0.0
 10
254.1129466829684
 20
-2.080960203558618
 10
253.7390464316246
 20
-1.940398433411274
  0
LWPOLYLINE
  5
AE635
330
1F
100
AcDbEntity
  8
HI Deatil 2
100
AcDbPolyline
 90
        2
 70
     0
 43
0.0
 10
253.676364465796
 20
-1.821165858723361
 10
253.623976720709
 20
-1.851745069129435
  0
LWPOLYLINE
  5
AE636
330
1F
100
AcDbEntity
  8
HI Deatil 2
100
AcDbPolyline
 90
        2
 70
     0
 43
0.0
 10
253.6133413749723
 20
-1.988809944840966
 10
253.5940721630071
 20
-1.931292456938649
  0
ARC
  5
AE637
330
1F
100
AcDbEntity
  8
HI Deatil 2
100
AcDbCircle
 10
253.6610840144072
 20
-1.911089719844937
 30
0.0
 40
0.0699909909499133
100
AcDbArc
 50
122.0171059176983
 51
196.7770118538285
  0
LWPOLYLINE
  5
AE638
330
1F
100
AcDbEntity
  8
HI Deatil 2
100
AcDbPolyline
 90
        2
 70
     0
 43
0.0
 10
253.0106239050862
 20
4.82816702062837
 10
253.0719720206886
 20
4.815709704124401
  0
LWPOLYLINE
  5
AE639
330
1F
100
AcDbEntity
  8
HI Deatil 2
100
AcDbPolyline
 90
        2
 70
     0
 43
0.0
 10
253.1262075311778
 20
4.68743848360458
 10
253.1259098004852
 20
4.750037903561064
  0
ARC
  5
AE63A
330
1F
100
AcDbEntity
  8
HI Deatil 2
100
AcDbCircle
 10
253.0559621785378
 20
4.74757436991041
 30
0.0
 40
0.0699909909499133
100
AcDbArc
 50
2.017105917719384
 51
76.77701185384821
  0
LWPOLYLINE
  5
AE63B
330
1F
100
AcDbEntity
  8
HI Detail 3
100
AcDbPolyline
 90
        2
 70
     0
 43
0.0
 10
252.9915988794284
 20
4.694711292842981
 10
252.682918690008
 20
4.441185061771449
  0
LWPOLYLINE
  5
AE63C
330
1F
100
AcDbEntity
  8
HI Deatil 2
100
AcDbPolyline
 90
        2
 70
     0
 43
0.0
 10
252.5483192684553
 20
4.446517174348741
 10
252.5486077689512
 20
4.385858451053366
  0
LWPOLYLINE
  5
AE63D
330
1F
100
AcDbEntity
  8
HI Deatil 2
100
AcDbPolyline
 90
        2
 70
     0
 43
0.0
 10
252.6619917604155
 20
4.308115533611612
 10
252.6025455487477
 20
4.320186650490029
  0
ARC
  5
AE63E
330
1F
100
AcDbEntity
  8
HI Deatil 2
100
AcDbCircle
 10
252.6185553908986
 20
4.388321984703964
 30
0.0
 40
0.0699909909499133
100
AcDbArc
 50
182.0171059176997
 51
256.7770118538281
  0
LWPOLYLINE
  5
AE63F
330
1F
100
AcDbEntity
  8
HI Deatil 2
100
AcDbPolyline
 90
        2
 70
     0
 43
0.0
 10
245.4508831378824
 20
6.935930481666446
 10
245.4849120451453
 20
6.988473887465289
  0
LWPOLYLINE
  5
AE640
330
1F
100
AcDbEntity
  8
HI Deatil 2
100
AcDbPolyline
 90
        2
 70
     0
 43
0.0
 10
245.6241321650378
 20
6.992045277781471
 10
245.5657597239443
 20
7.014660187536776
  0
ARC
  5
AE641
330
1F
100
AcDbEntity
  8
HI Deatil 2
100
AcDbCircle
 10
245.542473437718
 20
6.948656493034604
 30
0.0
 40
0.0699909909499133
100
AcDbArc
 50
70.56701719165069
 51
145.3269231277799
  0
LWPOLYLINE
  5
AE642
330
1F
100
AcDbEntity
  8
HI Detail 3
100
AcDbPolyline
 90
        2
 70
     0
 43
0.0
 10
245.5681379794178
 20
6.869419692943893
 10
245.6912226519399
 20
6.48940762396171
  0
LWPOLYLINE
  5
AE643
330
1F
100
AcDbEntity
  8
HI Deatil 2
100
AcDbPolyline
 90
        2
 70
     0
 43
0.0
 10
245.6370381188952
 20
6.366080935505522
 10
245.6936009074135
 20
6.344167129368855
  0
LWPOLYLINE
  5
AE644
330
1F
100
AcDbEntity
  8
HI Deatil 2
100
AcDbPolyline
 90
        2
 70
     0
 43
0.0
 10
245.8074225350308
 20
6.421267893433139
 10
245.7744485862124
 20
6.370353429440285
  0
ARC
  5
AE645
330
1F
100
AcDbEntity
  8
HI Deatil 2
100
AcDbCircle
 10
245.7168871936398
 20
6.410170823870998
 30
0.0
 40
0.0699909909499133
100
AcDbArc
 50
250.5670171916301
 51
325.326923127761
  0
LWPOLYLINE
  5
AE646
330
1F
100
AcDbEntity
  8
HI Deatil 2
100
AcDbPolyline
 90
        2
 70
     0
 43
0.0
 10
240.8517107103332
 20
1.701589556215935
 10
240.8232212397415
 20
1.757331157268083
  0
LWPOLYLINE
  5
AE647
330
1F
100
AcDbEntity
  8
HI Deatil 2
100
AcDbPolyline
 90
        2
 70
     0
 43
0.0
 10
240.8897383849471
 20
1.879685012970981
 10
240.840967078048
 20
1.840440450980707
  0
ARC
  5
AE648
330
1F
100
AcDbEntity
  8
HI Deatil 2
100
AcDbCircle
 10
240.8864848111174
 20
1.787272088297839
 30
0.0
 40
0.0699909909499133
100
AcDbArc
 50
130.5670171916522
 51
205.3269231277791
  0
LWPOLYLINE
  5
AE649
330
1F
100
AcDbEntity
  8
HI Detail 3
100
AcDbPolyline
 90
        2
 70
     0
 43
0.0
 10
240.9679381637604
 20
1.769879833341065
 10
241.3585806055047
 20
1.686468252070568
  0
LWPOLYLINE
  5
AE64A
330
1F
100
AcDbEntity
  8
HI Deatil 2
100
AcDbPolyline
 90
        2
 70
     0
 43
0.0
 10
241.43829238415
 20
1.577879725733566
 10
241.4855516912171
 20
1.615907634430925
  0
LWPOLYLINE
  5
AE64B
330
1F
100
AcDbEntity
  8
HI Deatil 2
100
AcDbPolyline
 90
        2
 70
     0
 43
0.0
 10
241.4756912846949
 20
1.753030437479765
 10
241.5032975295236
 20
1.699016928143549
  0
ARC
  5
AE64C
330
1F
100
AcDbEntity
  8
HI Deatil 2
100
AcDbCircle
 10
241.4400339581478
 20
1.66907599711385
 30
0.0
 40
0.0699909909499133
100
AcDbArc
 50
310.5670171916314
 51
25.32692312776159
  0
LWPOLYLINE
  5
AE64D
330
1F
100
AcDbEntity
  8
HI Deatil 2
100
AcDbPolyline
 90
        2
 70
     0
 43
0.0
 10
243.0851967100673
 20
-4.898581065151915
 10
243.0226783322127
 20
-4.895382869898583
  0
LWPOLYLINE
  5
AE64E
330
1F
100
AcDbEntity
  8
HI Deatil 2
100
AcDbPolyline
 90
        2
 70
     0
 43
0.0
 10
242.9499753575258
 20
-4.776600404511896
 10
242.9595764917202
 20
-4.838459876257445
  0
ARC
  5
AE64F
330
1F
100
AcDbEntity
  8
HI Deatil 2
100
AcDbCircle
 10
243.0283805110159
 20
-4.825624544438142
 30
0.0
 40
0.0699909909499133
100
AcDbArc
 50
190.5670171916502
 51
265.3269231277793
  0
LWPOLYLINE
  5
AE650
330
1F
100
AcDbEntity
  8
HI Detail 3
100
AcDbPolyline
 90
        2
 70
     0
 43
0.0
 10
243.0841693219591
 20
-4.763779999304176
 10
243.3517270911813
 20
-4.467179511592519
  0
LWPOLYLINE
  5
AE651
330
1F
100
AcDbEntity
  8
HI Deatil 2
100
AcDbPolyline
 90
        2
 70
     0
 43
0.0
 10
243.4856234028713
 20
-4.45244134947336
 10
243.4763199214201
 20
-4.392499634639307
  0
LWPOLYLINE
  5
AE652
330
1F
100
AcDbEntity
  8
HI Deatil 2
100
AcDbPolyline
 90
        2
 70
     0
 43
0.0
 10
243.3526378872806
 20
-4.332477595654751
 10
243.4132180809277
 20
-4.335576640998112
  0
ARC
  5
AE653
330
1F
100
AcDbEntity
  8
HI Deatil 2
100
AcDbCircle
 10
243.4075159021245
 20
-4.405334966458553
 30
0.0
 40
0.0699909909499133
100
AcDbArc
 50
10.5670171916304
 51
85.32692312775973
  0
LWPOLYLINE
  5
AE654
330
1F
100
AcDbEntity
  8
HI Deatil 2
100
AcDbPolyline
 90
        2
 70
     0
 43
0.0
 10
249.9178551373506
 20
-6.2644107610692
 10
249.8838262300877
 20
-6.316954166868015
  0
LWPOLYLINE
  5
AE655
330
1F
100
AcDbEntity
  8
HI Deatil 2
100
AcDbPolyline
 90
        2
 70
     0
 43
0.0
 10
249.7446061101952
 20
-6.320525557184225
 10
249.8029785512887
 20
-6.343140466939473
  0
ARC
  5
AE656
330
1F
100
AcDbEntity
  8
HI Deatil 2
100
AcDbCircle
 10
249.826264837515
 20
-6.277136772437359
 30
0.0
 40
0.0699909909499133
100
AcDbArc
 50
250.5670171916507
 51
325.32692312778
  0
LWPOLYLINE
  5
AE657
330
1F
100
AcDbEntity
  8
HI Detail 3
100
AcDbPolyline
 90
        2
 70
     0
 43
0.0
 10
249.8006002958152
 20
-6.197899972346647
 10
249.6775156232931
 20
-5.817887903364464
  0
LWPOLYLINE
  5
AE658
330
1F
100
AcDbEntity
  8
HI Deatil 2
100
AcDbPolyline
 90
        2
 70
     0
 43
0.0
 10
249.7317001563378
 20
-5.694561214908276
 10
249.6751373678196
 20
-5.672647408771638
  0
LWPOLYLINE
  5
AE659
330
1F
100
AcDbEntity
  8
HI Deatil 2
100
AcDbPolyline
 90
        2
 70
     0
 43
0.0
 10
249.5613157402022
 20
-5.749748172835893
 10
249.5942896890206
 20
-5.698833708843039
  0
ARC
  5
AE65A
330
1F
100
AcDbEntity
  8
HI Deatil 2
100
AcDbCircle
 10
249.6518510815932
 20
-5.738651103273753
 30
0.0
 40
0.0699909909499133
100
AcDbArc
 50
70.5670171916301
 51
145.326923127761
  0
LWPOLYLINE
  5
AE65B
330
1F
100
AcDbEntity
  8
HI Deatil 2
100
AcDbPolyline
 90
        2
 70
     0
 43
0.0
 10
254.5170275648998
 20
-1.030069835618689
 10
254.5455170354915
 20
-1.085811436670837
  0
LWPOLYLINE
  5
AE65C
330
1F
100
AcDbEntity
  8
HI Deatil 2
100
AcDbPolyline
 90
        2
 70
     0
 43
0.0
 10
254.4789998902859
 20
-1.208165292373735
 10
254.527771197185
 20
-1.16892073038349
  0
ARC
  5
AE65D
330
1F
100
AcDbEntity
  8
HI Deatil 2
100
AcDbCircle
 10
254.4822534641157
 20
-1.115752367700622
 30
0.0
 40
0.0699909909499133
100
AcDbArc
 50
310.5670171916523
 51
25.32692312777909
  0
LWPOLYLINE
  5
AE65E
330
1F
100
AcDbEntity
  8
HI Detail 3
100
AcDbPolyline
 90
        2
 70
     0
 43
0.0
 10
254.4008001114726
 20
-1.098360112743819
 10
254.0101576697283
 20
-1.014948531473351
  0
LWPOLYLINE
  5
AE65F
330
1F
100
AcDbEntity
  8
HI Deatil 2
100
AcDbPolyline
 90
        2
 70
     0
 43
0.0
 10
253.930445891083
 20
-0.9063600051363209
 10
253.8831865840159
 20
-0.9443879138336797
  0
LWPOLYLINE
  5
AE660
330
1F
100
AcDbEntity
  8
HI Deatil 2
100
AcDbPolyline
 90
        2
 70
     0
 43
0.0
 10
253.8930469905381
 20
-1.081510716882519
 10
253.8654407457094
 20
-1.027497207546304
  0
ARC
  5
AE661
330
1F
100
AcDbEntity
  8
HI Deatil 2
100
AcDbCircle
 10
253.9287043170852
 20
-0.9975562765166046
 30
0.0
 40
0.0699909909499133
100
AcDbArc
 50
130.5670171916314
 51
205.3269231277616
  0
CIRCLE
  5
AE662
330
1F
100
AcDbEntity
  8
HI Detail 3
100
AcDbCircle
 10
252.5074431254662
 20
4.940284480013417
 30
0.0
 40
0.0666157490742099
  0
CIRCLE
  5
AE663
330
1F
100
AcDbEntity
  8
HI Detail 3
100
AcDbCircle
 10
246.1082708385174
 20
6.814926767965687
 30
0.0
 40
0.0666157490742099
  0
CIRCLE
  5
AE664
330
1F
100
AcDbEntity
  8
HI Detail 3
100
AcDbCircle
 10
241.2851968506678
 20
2.210402148250921
 30
0.0
 40
0.0666157490742099
  0
CIRCLE
  5
AE665
330
1F
100
AcDbEntity
  8
HI Detail 3
100
AcDbCircle
 10
242.8612951497669
 20
-4.268764759416171
 30
0.0
 40
0.0666157490742099
  0
CIRCLE
  5
AE666
330
1F
100
AcDbEntity
  8
HI Detail 3
100
AcDbCircle
 10
249.2604674367156
 20
-6.143407047368498
 30
0.0
 40
0.0666157490742099
  0
CIRCLE
  5
AE667
330
1F
100
AcDbEntity
  8
HI Detail 3
100
AcDbCircle
 10
254.0835414245652
 20
-1.538882427653675
 30
0.0
 40
0.0666157490742099
  0
ARC
  5
AE67A
330
1F
100
AcDbEntity
  8
HI Deatil 2
100
AcDbCircle
 10
247.7554240130693
 20
0.7217227807358882
 30
0.0
 40
6.967834092612673
100
AcDbArc
 50
349.4525470165456
 51
350.5179848733048
  0
LWPOLYLINE
  5
AE67B
330
1F
100
AcDbEntity
  8
HI Deatil 2
100
AcDbPolyline
 90
        2
 70
     0
 43
0.0
 10
254.6055270788927
 20
-0.5537378928135013
 10
254.6347503328024
 20
-0.6090983250135765
  0
LWPOLYLINE
  5
AE67C
330
1F
100
AcDbEntity
  8
HI Deatil 2
100
AcDbPolyline
 90
        2
 70
     0
 43
0.0
 10
254.5698551138553
 20
-0.73232010543191
 10
254.6181038002428
 20
-0.6924347662164223
  0
ARC
  5
AE67D
330
1F
100
AcDbEntity
  8
HI Deatil 2
100
AcDbCircle
 10
254.5718877582401
 20
-0.6398722674576903
 30
0.0
 40
0.0699909909499133
100
AcDbArc
 50
311.3238363906488
 51
26.0837423267774
  0
LWPOLYLINE
  5
AE67E
330
1F
100
AcDbEntity
  8
HI Detail 3
100
AcDbPolyline
 90
        2
 70
     0
 43
0.0
 10
254.0283676916321
 20
-0.3263176838697177
 10
254.6280581870676
 20
-0.4261497960616225
  0
LINE
  5
AE67F
330
1F
100
AcDbEntity
  8
HI Detail 3
100
AcDbLine
 10
254.0400066728323
 20
-0.5420952213455621
 30
0.0
 11
254.5487067815892
 21
-0.6267751442947543
 31
0.0
  0
LWPOLYLINE
  5
AE680
330
1F
100
AcDbEntity
  8
HI Deatil 2
100
AcDbPolyline
 90
        4
 70
     0
 43
0.0
 10
253.9398780964851
 20
-0.4899992253400569
 10
254.0125733342756
 20
-0.4211995758826675
 10
254.0283676916321
 20
-0.3263176838697177
 10
253.890186329534
 20
-0.3033155517804289
  0
LWPOLYLINE
  5
AE681
330
1F
100
AcDbEntity
  8
HI Deatil 2
100
AcDbPolyline
 90
        2
 70
     0
 43
0.0
 10
254.7525748028128
 20
-0.4468716238401953
 10
254.6280591011256
 20
-0.4261443233279465
  0
ARC
  5
AE682
330
1F
100
AcDbEntity
  8
HI Deatil 2
100
AcDbCircle
 10
253.9976816326009
 20
-0.5350199113159704
 30
0.0
 40
0.0732673935200399
100
AcDbArc
 50
142.0865103069771
 51
196.4753205135635
  0
LWPOLYLINE
  5
AE683
330
1F
100
AcDbEntity
  8
HI Deatil 2
100
AcDbPolyline
 90
        2
 70
     0
 43
0.0
 10
254.7525748028128
 20
-0.4468716238401953
 10
254.7730855911138
 20
-0.3236565821154613
  0
LWPOLYLINE
  5
AE684
330
1F
100
AcDbEntity
  8
HI Deatil 2
100
AcDbPolyline
 90
        2
 70
     0
 43
0.0
 10
253.890186329534
 20
-0.3033155517804289
 10
253.9106971178351
 20
-0.1801005100556949
  0
LWPOLYLINE
  5
AE685
330
1F
100
AcDbEntity
  8
HI Deatil 2
100
AcDbPolyline
 90
        2
 70
     0
 43
0.0
 10
254.7730855911138
 20
-0.3236565821154613
 10
254.6781399089783
 20
-0.3078516060417655
  0
LWPOLYLINE
  5
AE686
330
1F
100
AcDbEntity
  8
HI Deatil 2
100
AcDbPolyline
 90
        2
 70
     0
 43
0.0
 10
254.0092164570452
 20
-0.1965003690486355
 10
253.9106971178351
 20
-0.1801005100556949
  0
LWPOLYLINE
  5
AE687
330
1F
100
AcDbEntity
  8
HI Deatil 2
100
AcDbPolyline
 90
        4
 70
     0
 43
0.0
 10
254.6781399089783
 20
-0.3078516060417655
 10
254.7271181644451
 20
-0.0136231394236575
 10
254.0581947125121
 20
0.0977280975694157
 10
254.0092164570452
 20
-0.1965003690486355
  0
LWPOLYLINE
  5
AE688
330
1F
100
AcDbEntity
  8
HI Detail 3
100
AcDbPolyline
 90
        2
 70
     0
 43
0.0
 10
254.0092164570452
 20
-0.1965003690486355
 10
254.6781399089783
 20
-0.3078516060417655
  0
LWPOLYLINE
  5
AE689
330
1F
100
AcDbEntity
  8
HI Deatil 2
100
AcDbPolyline
 90
        2
 70
     0
 43
0.0
 10
253.9274224530279
 20
-0.5557987139513614
 10
253.9737077832362
 20
-0.652789323241791
  0
ARC
  5
AE68A
330
1F
100
AcDbEntity
  8
HI Deatil 2
100
AcDbCircle
 10
257.5659536497453
 20
4.340091642353968
 30
0.0
 40
3.694478972356471
100
AcDbArc
 50
202.556298576288
 51
268.9275343997242
  0
ARC
  5
AE68B
330
1F
100
AcDbEntity
  8
HI Deatil 2
100
AcDbCircle
 10
257.589035377836
 20
4.357738984756622
 30
0.0
 40
4.322073874919482
100
AcDbArc
 50
202.6524640061653
 51
268.6283288796248
  0
LWPOLYLINE
  5
AE68C
330
1F
100
AcDbEntity
  8
HI Deatil 2
100
AcDbPolyline
 90
        2
 70
     0
 43
0.0
 10
258.9967960856228
 20
0.0560507871400375
 10
258.9967901088582
 20
0.6208746460500266
  0
HATCH
  5
AE69C
330
1F
100
AcDbEntity
  8
HI HATCH FILL
100
AcDbHatch
 10
0.0
 20
0.0
 30
0.0
210
0.0
220
0.0
230
1.0
  2
ANSI36
 70
     0
 71
     1
 91
        1
 92
        1
 93
       21
 72
     1
 10
248.3403678340921
 20
-18.29044724427177
 11
248.3631740050836
 21
-18.04265459785961
 72
     1
 10
248.3631740050836
 20
-18.04265459785961
 11
248.3213288883168
 21
-17.87766945296715
 72
     1
 10
248.3213288883168
 20
-17.87766945296715
 11
248.2756723677865
 21
-17.69906307388305
 72
     1
 10
248.2756723677865
 20
-17.69906307388305
 11
248.1285952422562
 21
-17.6122781285174
 72
     1
 10
248.1285952422562
 20
-17.6122781285174
 11
247.9394744833699
 21
-17.424923002794
 72
     1
 10
247.9394744833699
 20
-17.424923002794
 11
247.6904390081192
 21
-17.38338665925437
 72
     1
 10
247.6904390081192
 20
-17.38338665925437
 11
247.4443785564067
 21
-17.48647729083876
 72
     1
 10
247.4443785564067
 20
-17.48647729083876
 11
247.2610847757865
 21
-17.5150107137639
 72
     1
 10
247.2610847757865
 20
-17.5150107137639
 11
247.0803021439578
 21
-17.69906307388305
 72
     1
 10
247.0803021439578
 20
-17.69906307388305
 11
247.0803021439578
 21
-17.90259112327248
 72
     1
 10
247.0803021439578
 20
-17.90259112327248
 11
247.0138926073913
 21
-18.12688751420478
 72
     1
 10
247.0138926073913
 20
-18.12688751420478
 11
247.0436683745316
 21
-18.28718692193882
 72
     1
 10
247.0436683745316
 20
-18.28718692193882
 11
247.1218612476618
 21
-18.46651042253592
 72
     1
 10
247.1218612476618
 20
-18.46651042253592
 11
247.2670787145367
 21
-18.52148294760405
 72
     1
 10
247.2670787145367
 20
-18.52148294760405
 11
247.4206506602691
 21
-18.70839632375919
 72
     1
 10
247.4206506602691
 20
-18.70839632375919
 11
247.6157283512002
 21
-18.72085732868487
 72
     1
 10
247.6157283512002
 20
-18.72085732868487
 11
247.7900531695321
 21
-18.68762832176247
 72
     1
 10
247.7900531695321
 20
-18.68762832176247
 11
248.0243380302704
 21
-18.64583392313295
 72
     1
 10
248.0243380302704
 20
-18.64583392313295
 11
248.1636064541266
 21
-18.57547995652322
 72
     1
 10
248.1636064541266
 20
-18.57547995652322
 11
248.2590699836449
 21
-18.44256358928726
 72
     1
 10
248.2590699836449
 20
-18.44256358928726
 11
248.3403678340921
 21
-18.29044724427177
 97
        1
330
AE6E0
 75
     0
 76
     1
 52
-90.00000000000001
 41
1.5
 77
     0
 78
     1
 53
315.0
 43
240.7590810119433
 44
66.5033000043391
 45
0.3646019340493135
 46
-0.0994368911043583
 79
     4
 49
0.46875
 49
-0.09375
 49
0.0
 49
-0.09375
 98
        1
 10
240.7590810119433
 20
66.5033000043391
  0
LINE
  5
AE69D
330
1F
100
AcDbEntity
  8
HI Detail 3
100
AcDbLine
 10
255.5583747463419
 20
-17.83251070748849
 30
0.0
 11
255.5583747463419
 21
-18.30129820748846
 31
0.0
  0
LINE
  5
AE69E
330
1F
100
AcDbEntity
  8
HI Detail 3
100
AcDbLine
 10
255.1127327397852
 20
-17.80905445748851
 30
0.0
 11
255.1127327397852
 21
-18.32475445748849
 31
0.0
  0
LINE
  5
AE69F
330
1F
100
AcDbEntity
  8
HI Detail 3
100
AcDbLine
 10
254.4994863638553
 20
-19.05685317321894
 30
0.0
 11
254.0306988638552
 21
-19.05685317321894
 31
0.0
  0
LINE
  5
AE6A0
330
1F
100
AcDbEntity
  8
HI Detail 3
100
AcDbLine
 10
254.4994863638553
 20
-17.08843074175803
 30
0.0
 11
254.0306988638552
 21
-17.08843074175803
 31
0.0
  0
ARC
  5
AE6A1
330
1F
100
AcDbEntity
  8
HI Detail 3
100
AcDbCircle
 10
259.6758547401622
 20
-12.27199991764286
 30
0.0
 40
0.2554132626990042
100
AcDbArc
 50
207.5977860000001
 51
332.4022140000013
  0
ARC
  5
AE6A2
330
1F
100
AcDbEntity
  8
HI Detail 3
100
AcDbCircle
 10
259.2231478263598
 20
-12.50864521033037
 30
0.0
 40
0.2554132626990042
100
AcDbArc
 50
27.59778599999872
 51
152.4022140000013
  0
ARC
  5
AE6A3
330
1F
100
AcDbEntity
  8
HI Detail 3
100
AcDbCircle
 10
259.6758547401622
 20
-12.50864521033037
 30
0.0
 40
0.2554132626990042
100
AcDbArc
 50
27.59778599999872
 51
152.4022140000013
  0
LINE
  5
AE6A4
330
1F
100
AcDbEntity
  8
HI Detail 3
100
AcDbLine
 10
259.9022064808992
 20
-12.39032013172135
 30
0.0
 11
259.9022064808992
 21
-16.93058970185257
 31
0.0
  0
LINE
  5
AE6A5
330
1F
100
AcDbEntity
  8
HI Detail 3
100
AcDbLine
 10
258.9967960856228
 20
-12.39032013172135
 30
0.0
 11
258.9967960856228
 21
-16.93058970185257
 31
0.0
  0
ARC
  5
AE6A6
330
1F
100
AcDbEntity
  8
HI Deatil 2
100
AcDbCircle
 10
247.6843691376165
 20
-18.07264195748848
 30
0.0
 40
6.368385711489452
100
AcDbArc
 50
9.76440782912523
 51
38.59136375960066
  0
ARC
  5
AE6A7
330
1F
100
AcDbEntity
  8
HI Deatil 2
100
AcDbCircle
 10
247.6843691376165
 20
-18.07264195748848
 30
0.0
 40
6.368385711489452
100
AcDbArc
 50
40.20275401194861
 51
47.14127503353047
  0
ARC
  5
AE6A8
330
1F
100
AcDbEntity
  8
HI Deatil 2
100
AcDbCircle
 10
247.6843691376165
 20
-18.07264195748848
 30
0.0
 40
6.368385711489452
100
AcDbArc
 50
48.75266528587924
 51
98.59136375959879
  0
ARC
  5
AE6A9
330
1F
100
AcDbEntity
  8
HI Deatil 2
100
AcDbCircle
 10
247.6843691376165
 20
-18.07264195748848
 30
0.0
 40
6.368385711489452
100
AcDbArc
 50
100.2027540119485
 51
107.1412750335305
  0
ARC
  5
AE6AA
330
1F
100
AcDbEntity
  8
HI Deatil 2
100
AcDbCircle
 10
247.6843691376165
 20
-18.07264195748848
 30
0.0
 40
6.368385711489452
100
AcDbArc
 50
108.7526652858785
 51
158.5913637595996
  0
ARC
  5
AE6AB
330
1F
100
AcDbEntity
  8
HI Deatil 2
100
AcDbCircle
 10
247.6843691376165
 20
-18.07264195748848
 30
0.0
 40
6.368385711489452
100
AcDbArc
 50
160.2027540119476
 51
167.1412750335314
  0
ARC
  5
AE6AC
330
1F
100
AcDbEntity
  8
HI Deatil 2
100
AcDbCircle
 10
247.6843691376165
 20
-18.07264195748848
 30
0.0
 40
6.368385711489452
100
AcDbArc
 50
168.7526652858803
 51
218.5913637595994
  0
ARC
  5
AE6AD
330
1F
100
AcDbEntity
  8
HI Deatil 2
100
AcDbCircle
 10
247.6843691376165
 20
-18.07264195748848
 30
0.0
 40
6.368385711489452
100
AcDbArc
 50
220.2027540119473
 51
227.1412750335305
  0
ARC
  5
AE6AE
330
1F
100
AcDbEntity
  8
HI Deatil 2
100
AcDbCircle
 10
247.6843691376165
 20
-18.07264195748848
 30
0.0
 40
6.368385711489452
100
AcDbArc
 50
228.7526652858792
 51
278.5913637595988
  0
ARC
  5
AE6AF
330
1F
100
AcDbEntity
  8
HI Deatil 2
100
AcDbCircle
 10
247.6843691376165
 20
-18.07264195748848
 30
0.0
 40
6.368385711489452
100
AcDbArc
 50
280.2027540119485
 51
287.1412750335305
  0
ARC
  5
AE6B0
330
1F
100
AcDbEntity
  8
HI Deatil 2
100
AcDbCircle
 10
247.6843691376165
 20
-18.07264195748848
 30
0.0
 40
6.368385711489452
100
AcDbArc
 50
288.7526652858785
 51
338.5913637595996
  0
ARC
  5
AE6B1
330
1F
100
AcDbEntity
  8
HI Deatil 2
100
AcDbCircle
 10
247.6843691376165
 20
-18.07264195748848
 30
0.0
 40
6.368385711489452
100
AcDbArc
 50
340.2027540119476
 51
347.141275033533
  0
ARC
  5
AE6B2
330
1F
100
AcDbEntity
  8
HI Deatil 2
100
AcDbCircle
 10
247.6843691376165
 20
-18.07264195748848
 30
0.0
 40
6.368385711489452
100
AcDbArc
 50
348.7526652858803
 51
350.2355921708748
  0
LWPOLYLINE
  5
AE6B3
330
1F
100
AcDbEntity
  8
HI Deatil 2
100
AcDbPolyline
 90
        3
 70
     0
 43
0.0
 10
256.882555996342
 20
-17.76214195748849
 10
255.6422434963419
 20
-17.76214195748849
 10
255.5745875187231
 20
-17.72088251243792
  0
LWPOLYLINE
  5
AE6B4
330
1F
100
AcDbEntity
  8
HI Deatil 2
100
AcDbPolyline
 90
        3
 70
     0
 43
0.0
 10
255.5231883315128
 20
-17.72230616637779
 10
255.474168496342
 20
-17.76214195748849
 10
255.3559852453961
 20
-17.70024857391127
  0
LWPOLYLINE
  5
AE6B5
330
1F
100
AcDbEntity
  8
HI Deatil 2
100
AcDbPolyline
 90
        3
 70
     0
 43
0.0
 10
255.2890336263522
 20
-17.70173062075167
 10
255.209230996342
 20
-17.76214195748849
 10
255.1136202720614
 20
-17.76214195748849
  0
LWPOLYLINE
  5
AE6B6
330
1F
100
AcDbEntity
  8
HI Deatil 2
100
AcDbPolyline
 90
        3
 70
     0
 43
0.0
 10
255.1136202720614
 20
-18.35985445748849
 10
255.209230996342
 20
-18.35985445748849
 10
255.2966115810446
 20
-18.42777634055568
  0
LWPOLYLINE
  5
AE6B7
330
1F
100
AcDbEntity
  8
HI Deatil 2
100
AcDbPolyline
 90
        3
 70
     0
 43
0.0
 10
255.369522804447
 20
-18.42883609812747
 10
255.4620184963419
 20
-18.37149820748851
 10
255.531356621437
 20
-18.41383095754656
  0
LWPOLYLINE
  5
AE6B8
330
1F
100
AcDbEntity
  8
HI Deatil 2
100
AcDbPolyline
 90
        3
 70
     0
 43
0.0
 10
255.5870395110205
 20
-18.41258865018068
 10
255.6542247463419
 20
-18.37149820748851
 10
256.882555996342
 20
-18.37149820748851
  0
ARC
  5
AE6B9
330
1F
100
AcDbEntity
  8
HI Deatil 2
100
AcDbCircle
 10
255.5583406828808
 20
-18.37478003711891
 30
0.0
 40
0.0474669775554334
100
AcDbArc
 50
235.3556506467803
 51
307.2005084574734
  0
ARC
  5
AE6BA
330
1F
100
AcDbEntity
  8
HI Deatil 2
100
AcDbCircle
 10
255.5497258224441
 20
-17.7518455404371
 30
0.0
 40
0.0397091053128084
100
AcDbArc
 50
51.23735286306012
 51
131.9357911824918
  0
ARC
  5
AE6BB
330
1F
100
AcDbEntity
  8
HI Deatil 2
100
AcDbCircle
 10
255.3239516578972
 20
-17.7661421261389
 30
0.0
 40
0.0732673935200399
100
AcDbArc
 50
64.07369213844247
 51
118.4625023450258
  0
ARC
  5
AE6BC
330
1F
100
AcDbEntity
  8
HI Deatil 2
100
AcDbCircle
 10
255.3337675194454
 20
-18.38012380686882
 30
0.0
 40
0.0604262172009144
100
AcDbArc
 50
232.0555169337961
 51
306.2790231292141
  0
LWPOLYLINE
  5
AE6BD
330
1F
100
AcDbEntity
  8
HI Deatil 2
100
AcDbPolyline
 90
        2
 70
     0
 43
0.0
 10
254.5698551138553
 20
-19.14072192321902
 10
254.6111145589058
 20
-19.07306594560009
  0
LWPOLYLINE
  5
AE6BE
330
1F
100
AcDbEntity
  8
HI Deatil 2
100
AcDbPolyline
 90
        3
 70
     0
 43
0.0
 10
254.6096909049659
 20
-19.02166675838981
 10
254.5698551138553
 20
-18.97264692321897
 10
254.6317484974325
 20
-18.8544636722732
  0
LWPOLYLINE
  5
AE6BF
330
1F
100
AcDbEntity
  8
HI Deatil 2
100
AcDbPolyline
 90
        3
 70
     0
 43
0.0
 10
253.9031609732163
 20
-18.86800123132406
 10
253.9604988638552
 20
-18.96049692321895
 10
253.9181661137972
 20
-19.02983504831411
  0
LWPOLYLINE
  5
AE6C0
330
1F
100
AcDbEntity
  8
HI Deatil 2
100
AcDbPolyline
 90
        2
 70
     0
 43
0.0
 10
253.9194084211631
 20
-19.08551793789752
 10
253.9604988638552
 20
-19.15270317321898
  0
ARC
  5
AE6C1
330
1F
100
AcDbEntity
  8
HI Deatil 2
100
AcDbCircle
 10
253.9518732644749
 20
-18.83224594632236
 30
0.0
 40
0.0604262172009144
100
AcDbArc
 50
150.8859020671004
 51
216.2790231292142
  0
ARC
  5
AE6C2
330
1F
100
AcDbEntity
  8
HI Deatil 2
100
AcDbCircle
 10
253.9572170342249
 20
-19.05681910975789
 30
0.0
 40
0.0474669775554334
100
AcDbArc
 50
145.3556506467826
 51
217.2005084574712
  0
ARC
  5
AE6C3
330
1F
100
AcDbEntity
  8
HI Deatil 2
100
AcDbCircle
 10
254.5801515309067
 20
-19.04820424932114
 30
0.0
 40
0.0397091053128084
100
AcDbArc
 50
321.2373528630591
 51
41.93579118249064
  0
ARC
  5
AE6C4
330
1F
100
AcDbEntity
  8
HI Deatil 2
100
AcDbCircle
 10
254.5658549452049
 20
-18.82243008477434
 30
0.0
 40
0.0732673935200399
100
AcDbArc
 50
334.0736921384403
 51
15.50379556770115
  0
LWPOLYLINE
  5
AE6C5
330
1F
100
AcDbEntity
  8
HI Deatil 2
100
AcDbPolyline
 90
        3
 70
     0
 43
0.0
 10
254.5698551138553
 20
-17.00456199175801
 10
254.5698551138553
 20
-17.00456199175801
 10
254.6111145589058
 20
-17.07221796937693
  0
LWPOLYLINE
  5
AE6C6
330
1F
100
AcDbEntity
  8
HI Deatil 2
100
AcDbPolyline
 90
        3
 70
     0
 43
0.0
 10
254.6096909049659
 20
-17.12361715658716
 10
254.5698551138553
 20
-17.172636991758
 10
254.6317484974325
 20
-17.29082024270377
  0
LWPOLYLINE
  5
AE6C7
330
1F
100
AcDbEntity
  8
HI Deatil 2
100
AcDbPolyline
 90
        3
 70
     0
 43
0.0
 10
253.9031609732163
 20
-17.27728268365297
 10
253.9604988638552
 20
-17.18478699175802
 10
253.9181661137972
 20
-17.11544886666286
  0
LWPOLYLINE
  5
AE6C8
330
1F
100
AcDbEntity
  8
HI Deatil 2
100
AcDbPolyline
 90
        2
 70
     0
 43
0.0
 10
253.9194084211631
 20
-17.05976597707945
 10
253.9604988638552
 20
-16.99258074175799
  0
ARC
  5
AE6C9
330
1F
100
AcDbEntity
  8
HI Deatil 2
100
AcDbCircle
 10
253.9518732644749
 20
-17.31303796865461
 30
0.0
 40
0.0604262172009144
100
AcDbArc
 50
143.7209768707858
 51
209.1140979329915
  0
ARC
  5
AE6CA
330
1F
100
AcDbEntity
  8
HI Deatil 2
100
AcDbCircle
 10
253.9572170342249
 20
-17.08846480521913
 30
0.0
 40
0.0474669775554334
100
AcDbArc
 50
142.7994915425288
 51
214.6443493532173
  0
ARC
  5
AE6CB
330
1F
100
AcDbEntity
  8
HI Deatil 2
100
AcDbCircle
 10
254.5801515309067
 20
-17.09707966565588
 30
0.0
 40
0.0397091053128084
100
AcDbArc
 50
318.0642088175094
 51
38.7626471369409
  0
ARC
  5
AE6CC
330
1F
100
AcDbEntity
  8
HI Deatil 2
100
AcDbCircle
 10
254.5658549452049
 20
-17.32285383020269
 30
0.0
 40
0.0732673935200399
100
AcDbArc
 50
344.496204432253
 51
25.92630786155972
  0
ARC
  5
AE6CD
330
1F
100
AcDbEntity
  8
HI Deatil 2
100
AcDbCircle
 10
247.6843691376165
 20
-18.07264195748848
 30
0.0
 40
6.967834092612673
100
AcDbArc
 50
8.81747452307407
 51
38.64830122793226
  0
ARC
  5
AE6CE
330
1F
100
AcDbEntity
  8
HI Deatil 2
100
AcDbCircle
 10
247.6843691376165
 20
-18.07264195748848
 30
0.0
 40
6.967834092612673
100
AcDbArc
 50
40.14581654361456
 51
47.19821250186444
  0
ARC
  5
AE6CF
330
1F
100
AcDbEntity
  8
HI Deatil 2
100
AcDbCircle
 10
247.6843691376165
 20
-18.07264195748848
 30
0.0
 40
6.967834092612673
100
AcDbArc
 50
48.69572781754491
 51
98.6483012279317
  0
ARC
  5
AE6D0
330
1F
100
AcDbEntity
  8
HI Deatil 2
100
AcDbCircle
 10
247.6843691376165
 20
-18.07264195748848
 30
0.0
 40
6.967834092612673
100
AcDbArc
 50
100.1458165436158
 51
107.1982125018652
  0
ARC
  5
AE6D1
330
1F
100
AcDbEntity
  8
HI Deatil 2
100
AcDbCircle
 10
247.6843691376165
 20
-18.07264195748848
 30
0.0
 40
6.967834092612673
100
AcDbArc
 50
108.6957278175449
 51
158.6483012279333
  0
ARC
  5
AE6D2
330
1F
100
AcDbEntity
  8
HI Deatil 2
100
AcDbCircle
 10
247.6843691376165
 20
-18.07264195748848
 30
0.0
 40
6.967834092612673
100
AcDbArc
 50
160.1458165436153
 51
167.1982125018656
  0
ARC
  5
AE6D3
330
1F
100
AcDbEntity
  8
HI Deatil 2
100
AcDbCircle
 10
247.6843691376165
 20
-18.07264195748848
 30
0.0
 40
6.967834092612673
100
AcDbArc
 50
168.6957278175457
 51
218.6483012279322
  0
ARC
  5
AE6D4
330
1F
100
AcDbEntity
  8
HI Deatil 2
100
AcDbCircle
 10
247.6843691376165
 20
-18.07264195748848
 30
0.0
 40
6.967834092612673
100
AcDbArc
 50
220.1458165436146
 51
227.1982125018634
  0
ARC
  5
AE6D5
330
1F
100
AcDbEntity
  8
HI Deatil 2
100
AcDbCircle
 10
247.6843691376165
 20
-18.07264195748848
 30
0.0
 40
6.967834092612673
100
AcDbArc
 50
228.6957278175449
 51
278.648301227935
  0
ARC
  5
AE6D6
330
1F
100
AcDbEntity
  8
HI Deatil 2
100
AcDbCircle
 10
247.6843691376165
 20
-18.07264195748848
 30
0.0
 40
6.967834092612673
100
AcDbArc
 50
280.1458165436159
 51
287.1982125018651
  0
ARC
  5
AE6D7
330
1F
100
AcDbEntity
  8
HI Deatil 2
100
AcDbCircle
 10
247.6843691376165
 20
-18.07264195748848
 30
0.0
 40
6.967834092612673
100
AcDbArc
 50
288.6957278175449
 51
338.6483012279334
  0
ARC
  5
AE6D8
330
1F
100
AcDbEntity
  8
HI Deatil 2
100
AcDbCircle
 10
247.6843691376165
 20
-18.07264195748848
 30
0.0
 40
6.967834092612673
100
AcDbArc
 50
340.1458165436153
 51
347.1982125018657
  0
ARC
  5
AE6D9
330
1F
100
AcDbEntity
  8
HI Deatil 2
100
AcDbCircle
 10
247.6843691376165
 20
-18.07264195748848
 30
0.0
 40
6.967834092612673
100
AcDbArc
 50
348.6957278175473
 51
351.1825254769275
  0
ARC
  5
AE6DA
330
1F
100
AcDbEntity
  8
HI Detail 3
100
AcDbCircle
 10
259.6758547401622
 20
-23.87328399733411
 30
0.0
 40
0.2554132626990042
100
AcDbArc
 50
27.59778599999872
 51
152.4022139999998
  0
ARC
  5
AE6DB
330
1F
100
AcDbEntity
  8
HI Detail 3
100
AcDbCircle
 10
259.2231478263598
 20
-23.6366387046466
 30
0.0
 40
0.2554132626990042
100
AcDbArc
 50
207.5977859999987
 51
332.4022140000013
  0
ARC
  5
AE6DC
330
1F
100
AcDbEntity
  8
HI Detail 3
100
AcDbCircle
 10
259.6758547401622
 20
-23.6366387046466
 30
0.0
 40
0.2554132626990042
100
AcDbArc
 50
207.5977859999987
 51
332.4022140000013
  0
LINE
  5
AE6DD
330
1F
100
AcDbEntity
  8
HI Detail 3
100
AcDbLine
 10
259.9022064808992
 20
-23.75496378325562
 30
0.0
 11
259.9022064808992
 21
-16.93058970185257
 31
0.0
  0
LINE
  5
AE6DE
330
1F
100
AcDbEntity
  8
HI Detail 3
100
AcDbLine
 10
258.9967960856228
 20
-23.75496378325568
 30
0.0
 11
258.9967960856228
 21
-16.93058970185257
 31
0.0
  0
LWPOLYLINE
  5
AE6E0
102
{ACAD_REACTORS
330
AE69C
102
}
330
1F
100
AcDbEntity
  8
HI Detail 3
100
AcDbPolyline
 90
       21
 70
     1
 43
0.0
 10
248.3403678340921
 20
-18.29044724427177
 10
248.3631740050836
 20
-18.04265459785961
 10
248.3213288883168
 20
-17.87766945296715
 10
248.2756723677865
 20
-17.69906307388305
 10
248.1285952422562
 20
-17.6122781285174
 10
247.9394744833699
 20
-17.424923002794
 10
247.6904390081192
 20
-17.38338665925437
 10
247.4443785564067
 20
-17.48647729083876
 10
247.2610847757865
 20
-17.5150107137639
 10
247.0803021439578
 20
-17.69906307388305
 10
247.0803021439578
 20
-17.90259112327248
 10
247.0138926073913
 20
-18.12688751420478
 10
247.0436683745316
 20
-18.28718692193882
 10
247.1218612476618
 20
-18.46651042253592
 10
247.2670787145367
 20
-18.52148294760405
 10
247.4206506602691
 20
-18.70839632375919
 10
247.6157283512002
 20
-18.72085732868487
 10
247.7900531695321
 20
-18.68762832176247
 10
248.0243380302704
 20
-18.64583392313295
 10
248.1636064541266
 20
-18.57547995652322
 10
248.2590699836449
 20
-18.44256358928726
  0
LWPOLYLINE
  5
AE6E1
330
1F
100
AcDbEntity
  8
HI Detail 3
100
AcDbPolyline
 90
       74
 70
     1
 43
0.0
 10
243.1213382617257
 20
-20.86094842967623
 10
243.1566860258369
 20
-21.45576368187784
 10
243.6705558619543
 20
-21.88830362590465
 10
243.9426798701546
 20
-22.4289809471926
 10
244.3616764549875
 20
-22.38326025733335
 10
244.5829997234061
 20
-22.8131331101381
 10
245.4593141313217
 20
-23.23321479371452
 10
246.1083587319648
 20
-23.39000786986111
 10
247.2361630063272
 20
-23.61647058681757
 10
247.2836681836603
 20
-23.06970014032351
 10
247.6702218266217
 20
-23.13177316207668
 10
247.9913033390523
 20
-23.47698472445598
 10
248.3277014352598
 20
-23.2904024252876
 10
249.1106057199954
 20
-23.26524624910689
 10
249.2944947810017
 20
-23.4606914332453
 10
249.7353725615884
 20
-23.33149566320037
 10
249.9769950711827
 20
-22.91790351042835
 10
250.7280406722459
 20
-22.37977722491905
 10
251.0618588188536
 20
-22.4998895768307
 10
251.3223503445858
 20
-21.77159575575354
 10
251.7361506469899
 20
-21.9731740889967
 10
252.1002745501463
 20
-21.85538879356261
 10
252.0280745384524
 20
-21.3420509347074
 10
251.9280208622582
 20
-20.78405392485888
 10
252.1205708890648
 20
-20.56752388349332
 10
252.5583012705599
 20
-20.42592866862839
 10
252.8726040056677
 20
-20.19443580883057
 10
252.7396659145016
 20
-19.56471615175155
 10
252.3790683340906
 20
-18.99683683794552
 10
252.5463671996666
 20
-18.52964479067412
 10
253.1122136838632
 20
-18.346607108353
 10
253.2748239566506
 20
-18.0107552176168
 10
253.1337412361273
 20
-17.5016916540053
 10
253.2806783555693
 20
-17.33613953941147
 10
253.107258436197
 20
-16.87294265860129
 10
252.6877579256805
 20
-16.68194436985442
 10
252.2485697461182
 20
-16.04130653259739
 10
252.7012526072051
 20
-15.62859167529092
 10
252.068479040218
 20
-15.11998420179355
 10
251.698191312948
 20
-14.57508143130417
 10
251.0083930288594
 20
-14.59543907914866
 10
250.9233776441755
 20
-14.16855704131672
 10
251.0009303372575
 20
-13.7514636386922
 10
250.3156167342906
 20
-13.45638845943603
 10
249.7764276910475
 20
-13.43016683429977
 10
249.4777312227209
 20
-13.09010866003388
 10
249.2917861179019
 20
-12.84340200743531
 10
248.6797780795745
 20
-13.02956947415856
 10
248.5509788484653
 20
-12.74077313863228
 10
248.2200120678539
 20
-12.84783290508892
 10
247.8428169510511
 20
-12.55677152109086
 10
247.2687589509331
 20
-12.45921403895835
 10
246.7205008952863
 20
-12.6601666609551
 10
246.4608125168402
 20
-12.73236757694599
 10
246.2699372916453
 20
-13.05375812582281
 10
245.8670091169354
 20
-12.86543789561659
 10
245.4777602114049
 20
-13.11760391760748
 10
245.382815874107
 20
-13.47555587099003
 10
244.9579648405477
 20
-13.80205686334437
 10
244.3449590703555
 20
-13.63674975235773
 10
243.4975562101025
 20
-14.25694226844831
 10
243.1001054638525
 20
-14.67202937370194
 10
242.8026674180832
 20
-15.61757540286999
 10
242.631770148777
 20
-16.16403610544034
 10
242.8676384760949
 20
-16.64031580028683
 10
242.6904232683703
 20
-16.85113418896111
 10
242.0977202793072
 20
-17.07355822573794
 10
241.8960562360113
 20
-17.61973873862269
 10
242.4515804096245
 20
-18.13587781460347
 10
242.2607760375346
 20
-18.49435301704778
 10
242.014430977466
 20
-18.87079429171501
 10
242.2402408215527
 20
-19.44242371915391
 10
242.3045620042682
 20
-19.83093372837095
 10
242.9180893902078
 20
-20.39994086688324
  0
LWPOLYLINE
  5
AE6E2
330
1F
100
AcDbEntity
  8
HI Deatil 2
100
AcDbPolyline
 90
        2
 70
     0
 43
0.0
 10
252.2835415651657
 20
-12.83830103203792
 10
252.3460599430204
 20
-12.84149922729125
  0
LWPOLYLINE
  5
AE6E3
330
1F
100
AcDbEntity
  8
HI Deatil 2
100
AcDbPolyline
 90
        2
 70
     0
 43
0.0
 10
252.4187629177072
 20
-12.96028169267794
 10
252.4091617835129
 20
-12.89842222093244
  0
ARC
  5
AE6E4
330
1F
100
AcDbEntity
  8
HI Deatil 2
100
AcDbCircle
 10
252.3403577642172
 20
-12.91125755275169
 30
0.0
 40
0.0699909909499133
100
AcDbArc
 50
10.56701719165021
 51
85.32692312777934
  0
LWPOLYLINE
  5
AE6E5
330
1F
100
AcDbEntity
  8
HI Detail 3
100
AcDbPolyline
 90
        2
 70
     0
 43
0.0
 10
252.284568953274
 20
-12.97310209788566
 10
252.0170111840517
 20
-13.26970258559731
  0
LWPOLYLINE
  5
AE6E6
330
1F
100
AcDbEntity
  8
HI Deatil 2
100
AcDbPolyline
 90
        2
 70
     0
 43
0.0
 10
251.8831148723617
 20
-13.28444074771647
 10
251.8924183538129
 20
-13.34438246255053
  0
LWPOLYLINE
  5
AE6E7
330
1F
100
AcDbEntity
  8
HI Deatil 2
100
AcDbPolyline
 90
        2
 70
     0
 43
0.0
 10
252.0161003879525
 20
-13.40440450153511
 10
251.9555201943054
 20
-13.40130545619172
  0
ARC
  5
AE6E8
330
1F
100
AcDbEntity
  8
HI Deatil 2
100
AcDbCircle
 10
251.9612223731086
 20
-13.33154713073128
 30
0.0
 40
0.0699909909499133
100
AcDbArc
 50
190.5670171916304
 51
265.3269231277597
  0
LWPOLYLINE
  5
AE6E9
330
1F
100
AcDbEntity
  8
HI Deatil 2
100
AcDbPolyline
 90
        2
 70
     0
 43
0.0
 10
246.4569577963627
 20
-11.2137664416669
 10
246.4984202067193
 20
-11.16686607333281
  0
LWPOLYLINE
  5
AE6EA
330
1F
100
AcDbEntity
  8
HI Deatil 2
100
AcDbPolyline
 90
        2
 70
     0
 43
0.0
 10
246.6366240975085
 20
-11.18403235372199
 10
246.5822625442177
 20
-11.15299048608693
  0
ARC
  5
AE6EB
330
1F
100
AcDbEntity
  8
HI Deatil 2
100
AcDbCircle
 10
246.5494222159685
 20
-11.21479867045309
 30
0.0
 40
0.0699909909499133
100
AcDbArc
 50
62.01710591771843
 51
136.7770118538482
  0
LWPOLYLINE
  5
AE6EC
330
1F
100
AcDbEntity
  8
HI Detail 3
100
AcDbPolyline
 90
        2
 70
     0
 43
0.0
 10
246.5630213340765
 20
-11.29697046108691
 10
246.6282413959999
 20
-11.69105846230576
  0
LWPOLYLINE
  5
AE6ED
330
1F
100
AcDbEntity
  8
HI Deatil 2
100
AcDbPolyline
 90
        2
 70
     0
 43
0.0
 10
246.5563239402758
 20
-11.80495892441644
 10
246.6090001858586
 20
-11.83503843730562
  0
LWPOLYLINE
  5
AE6EE
330
1F
100
AcDbEntity
  8
HI Deatil 2
100
AcDbPolyline
 90
        2
 70
     0
 43
0.0
 10
246.7330195230597
 20
-11.77571647903585
 10
246.692842523357
 20
-11.8211628500598
  0
ARC
  5
AE6EF
330
1F
100
AcDbEntity
  8
HI Deatil 2
100
AcDbCircle
 10
246.6418405141078
 20
-11.77323025293958
 30
0.0
 40
0.0699909909499133
100
AcDbArc
 50
242.0171059177002
 51
316.7770118538286
  0
LWPOLYLINE
  5
AE6F0
330
1F
100
AcDbEntity
  8
HI Deatil 2
100
AcDbPolyline
 90
        2
 70
     0
 43
0.0
 10
241.130703028893
 20
-15.70617360199662
 10
241.1108173236472
 20
-15.64681591715862
  0
LWPOLYLINE
  5
AE6F1
330
1F
100
AcDbEntity
  8
HI Deatil 2
100
AcDbPolyline
 90
        2
 70
     0
 43
0.0
 10
241.1947857039472
 20
-15.53571097702792
 10
241.140721881349
 20
-15.5672685293494
  0
ARC
  5
AE6F2
330
1F
100
AcDbEntity
  8
HI Deatil 2
100
AcDbCircle
 10
241.1778291750473
 20
-15.62661318006485
 30
0.0
 40
0.0699909909499133
100
AcDbArc
 50
122.0171059177181
 51
196.7770118538476
  0
LWPOLYLINE
  5
AE6F3
330
1F
100
AcDbEntity
  8
HI Detail 3
100
AcDbPolyline
 90
        2
 70
     0
 43
0.0
 10
241.2557915922646
 20
-15.65592189363127
 10
241.6296918436085
 20
-15.79648366377859
  0
LWPOLYLINE
  5
AE6F4
330
1F
100
AcDbEntity
  8
HI Deatil 2
100
AcDbPolyline
 90
        2
 70
     0
 43
0.0
 10
241.6923738094371
 20
-15.91571623846653
 10
241.744761554524
 20
-15.8851370280604
  0
LWPOLYLINE
  5
AE6F5
330
1F
100
AcDbEntity
  8
HI Deatil 2
100
AcDbPolyline
 90
        2
 70
     0
 43
0.0
 10
241.7553969002607
 20
-15.74807215234887
 10
241.7746661122259
 20
-15.80558964025124
  0
ARC
  5
AE6F6
330
1F
100
AcDbEntity
  8
HI Deatil 2
100
AcDbCircle
 10
241.7076542608258
 20
-15.8257923773449
 30
0.0
 40
0.0699909909499133
100
AcDbArc
 50
302.0171059176983
 51
16.77701185382857
  0
LWPOLYLINE
  5
AE6F7
330
1F
100
AcDbEntity
  8
HI Deatil 2
100
AcDbPolyline
 90
        2
 70
     0
 43
0.0
 10
242.3581143701468
 20
-22.56504911781821
 10
242.2967662545444
 20
-22.55259180131429
  0
LWPOLYLINE
  5
AE6F8
330
1F
100
AcDbEntity
  8
HI Deatil 2
100
AcDbPolyline
 90
        2
 70
     0
 43
0.0
 10
242.2425307440553
 20
-22.42432058079447
 10
242.2428284747478
 20
-22.48692000075096
  0
ARC
  5
AE6F9
330
1F
100
AcDbEntity
  8
HI Deatil 2
100
AcDbCircle
 10
242.3127760966953
 20
-22.4844564671003
 30
0.0
 40
0.0699909909499133
100
AcDbArc
 50
182.0171059177194
 51
256.7770118538482
  0
LWPOLYLINE
  5
AE6FA
330
1F
100
AcDbEntity
  8
HI Detail 3
100
AcDbPolyline
 90
        2
 70
     0
 43
0.0
 10
242.3771393958046
 20
-22.43159339003284
 10
242.6858195852251
 20
-22.17806715896131
  0
LWPOLYLINE
  5
AE6FB
330
1F
100
AcDbEntity
  8
HI Deatil 2
100
AcDbPolyline
 90
        2
 70
     0
 43
0.0
 10
242.8204190067777
 20
-22.18339927153857
 10
242.8201305062819
 20
-22.12274054824326
  0
LWPOLYLINE
  5
AE6FC
330
1F
100
AcDbEntity
  8
HI Deatil 2
100
AcDbPolyline
 90
        2
 70
     0
 43
0.0
 10
242.7067465148175
 20
-22.0449976308015
 10
242.7661927264854
 20
-22.05706874767987
  0
ARC
  5
AE6FD
330
1F
100
AcDbEntity
  8
HI Deatil 2
100
AcDbCircle
 10
242.7501828843344
 20
-22.12520408189385
 30
0.0
 40
0.0699909909499133
100
AcDbArc
 50
2.01710591769974
 51
76.77701185382807
  0
LWPOLYLINE
  5
AE6FE
330
1F
100
AcDbEntity
  8
HI Deatil 2
100
AcDbPolyline
 90
        2
 70
     0
 43
0.0
 10
248.9117804788703
 20
-24.93151747331007
 10
248.8703180685137
 20
-24.9784178416441
  0
LWPOLYLINE
  5
AE6FF
330
1F
100
AcDbEntity
  8
HI Deatil 2
100
AcDbPolyline
 90
        2
 70
     0
 43
0.0
 10
248.7321141777246
 20
-24.96125156125498
 10
248.7864757310153
 20
-24.99229342888998
  0
ARC
  5
AE700
330
1F
100
AcDbEntity
  8
HI Deatil 2
100
AcDbCircle
 10
248.8193160592645
 20
-24.93048524452388
 30
0.0
 40
0.0699909909499133
100
AcDbArc
 50
242.0171059177184
 51
316.7770118538483
  0
LWPOLYLINE
  5
AE701
330
1F
100
AcDbEntity
  8
HI Detail 3
100
AcDbPolyline
 90
        2
 70
     0
 43
0.0
 10
248.8057169411566
 20
-24.84831345389006
 10
248.7404968792331
 20
-24.45422545267121
  0
LWPOLYLINE
  5
AE702
330
1F
100
AcDbEntity
  8
HI Deatil 2
100
AcDbPolyline
 90
        2
 70
     0
 43
0.0
 10
248.8124143349572
 20
-24.34032499056054
 10
248.7597380893744
 20
-24.31024547767129
  0
LWPOLYLINE
  5
AE703
330
1F
100
AcDbEntity
  8
HI Deatil 2
100
AcDbPolyline
 90
        2
 70
     0
 43
0.0
 10
248.6357187521733
 20
-24.36956743594107
 10
248.675895751876
 20
-24.32412106491711
  0
ARC
  5
AE704
330
1F
100
AcDbEntity
  8
HI Deatil 2
100
AcDbCircle
 10
248.7268977611251
 20
-24.37205366203739
 30
0.0
 40
0.0699909909499133
100
AcDbArc
 50
62.01710591770023
 51
136.7770118538286
  0
LWPOLYLINE
  5
AE705
330
1F
100
AcDbEntity
  8
HI Deatil 2
100
AcDbPolyline
 90
        2
 70
     0
 43
0.0
 10
254.23803524634
 20
-20.43911031298035
 10
254.2579209515858
 20
-20.49846799781835
  0
LWPOLYLINE
  5
AE706
330
1F
100
AcDbEntity
  8
HI Deatil 2
100
AcDbPolyline
 90
        2
 70
     0
 43
0.0
 10
254.1739525712858
 20
-20.60957293794905
 10
254.228016393884
 20
-20.57801538562757
  0
ARC
  5
AE707
330
1F
100
AcDbEntity
  8
HI Deatil 2
100
AcDbCircle
 10
254.1909091001858
 20
-20.51867073491207
 30
0.0
 40
0.0699909909499133
100
AcDbArc
 50
302.0171059177181
 51
16.7770118538476
  0
LWPOLYLINE
  5
AE708
330
1F
100
AcDbEntity
  8
HI Detail 3
100
AcDbPolyline
 90
        2
 70
     0
 43
0.0
 10
254.1129466829684
 20
-20.4893620213457
 10
253.7390464316246
 20
-20.34880025119838
  0
LWPOLYLINE
  5
AE709
330
1F
100
AcDbEntity
  8
HI Deatil 2
100
AcDbPolyline
 90
        2
 70
     0
 43
0.0
 10
253.676364465796
 20
-20.22956767651044
 10
253.623976720709
 20
-20.26014688691657
  0
LWPOLYLINE
  5
AE70A
330
1F
100
AcDbEntity
  8
HI Deatil 2
100
AcDbPolyline
 90
        2
 70
     0
 43
0.0
 10
253.6133413749723
 20
-20.3972117626281
 10
253.5940721630071
 20
-20.33969427472573
  0
ARC
  5
AE70B
330
1F
100
AcDbEntity
  8
HI Deatil 2
100
AcDbCircle
 10
253.6610840144072
 20
-20.31949153763202
 30
0.0
 40
0.0699909909499133
100
AcDbArc
 50
122.0171059176983
 51
196.7770118538285
  0
LWPOLYLINE
  5
AE70C
330
1F
100
AcDbEntity
  8
HI Deatil 2
100
AcDbPolyline
 90
        2
 70
     0
 43
0.0
 10
253.0106239050862
 20
-13.58023479715877
 10
253.0719720206886
 20
-13.59269211366268
  0
LWPOLYLINE
  5
AE70D
330
1F
100
AcDbEntity
  8
HI Deatil 2
100
AcDbPolyline
 90
        2
 70
     0
 43
0.0
 10
253.1262075311778
 20
-13.7209633341825
 10
253.1259098004852
 20
-13.65836391422601
  0
ARC
  5
AE70E
330
1F
100
AcDbEntity
  8
HI Deatil 2
100
AcDbCircle
 10
253.0559621785378
 20
-13.66082744787667
 30
0.0
 40
0.0699909909499133
100
AcDbArc
 50
2.017105917719384
 51
76.77701185384821
  0
LWPOLYLINE
  5
AE70F
330
1F
100
AcDbEntity
  8
HI Detail 3
100
AcDbPolyline
 90
        2
 70
     0
 43
0.0
 10
252.9915988794284
 20
-13.71369052494413
 10
252.682918690008
 20
-13.96721675601566
  0
LWPOLYLINE
  5
AE710
330
1F
100
AcDbEntity
  8
HI Deatil 2
100
AcDbPolyline
 90
        2
 70
     0
 43
0.0
 10
252.5483192684553
 20
-13.96188464343839
 10
252.5486077689512
 20
-14.02254336673371
  0
LWPOLYLINE
  5
AE711
330
1F
100
AcDbEntity
  8
HI Deatil 2
100
AcDbPolyline
 90
        2
 70
     0
 43
0.0
 10
252.6619917604155
 20
-14.10028628417547
 10
252.6025455487477
 20
-14.08821516729705
  0
ARC
  5
AE712
330
1F
100
AcDbEntity
  8
HI Deatil 2
100
AcDbCircle
 10
252.6185553908986
 20
-14.02007983308311
 30
0.0
 40
0.0699909909499133
100
AcDbArc
 50
182.0171059176997
 51
256.7770118538281
  0
LWPOLYLINE
  5
AE713
330
1F
100
AcDbEntity
  8
HI Deatil 2
100
AcDbPolyline
 90
        2
 70
     0
 43
0.0
 10
245.4508831378824
 20
-11.47247133612063
 10
245.4849120451453
 20
-11.41992793032182
  0
LWPOLYLINE
  5
AE714
330
1F
100
AcDbEntity
  8
HI Deatil 2
100
AcDbPolyline
 90
        2
 70
     0
 43
0.0
 10
245.6241321650378
 20
-11.41635654000561
 10
245.5657597239443
 20
-11.3937416302503
  0
ARC
  5
AE715
330
1F
100
AcDbEntity
  8
HI Deatil 2
100
AcDbCircle
 10
245.542473437718
 20
-11.45974532475253
 30
0.0
 40
0.0699909909499133
100
AcDbArc
 50
70.56701719165069
 51
145.3269231277786
  0
LWPOLYLINE
  5
AE716
330
1F
100
AcDbEntity
  8
HI Detail 3
100
AcDbPolyline
 90
        2
 70
     0
 43
0.0
 10
245.5681379794178
 20
-11.53898212484324
 10
245.6912226519399
 20
-11.91899419382537
  0
LWPOLYLINE
  5
AE717
330
1F
100
AcDbEntity
  8
HI Deatil 2
100
AcDbPolyline
 90
        2
 70
     0
 43
0.0
 10
245.6370381188952
 20
-12.04232088228156
 10
245.6936009074135
 20
-12.06423468841825
  0
LWPOLYLINE
  5
AE718
330
1F
100
AcDbEntity
  8
HI Deatil 2
100
AcDbPolyline
 90
        2
 70
     0
 43
0.0
 10
245.8074225350308
 20
-11.98713392435394
 10
245.7744485862124
 20
-12.03804838834679
  0
ARC
  5
AE719
330
1F
100
AcDbEntity
  8
HI Deatil 2
100
AcDbCircle
 10
245.7168871936398
 20
-11.99823099391614
 30
0.0
 40
0.0699909909499133
100
AcDbArc
 50
250.5670171916301
 51
325.326923127761
  0
LWPOLYLINE
  5
AE71A
330
1F
100
AcDbEntity
  8
HI Deatil 2
100
AcDbPolyline
 90
        2
 70
     0
 43
0.0
 10
240.8517107103332
 20
-16.7068122615712
 10
240.8232212397415
 20
-16.651070660519
  0
LWPOLYLINE
  5
AE71B
330
1F
100
AcDbEntity
  8
HI Deatil 2
100
AcDbPolyline
 90
        2
 70
     0
 43
0.0
 10
240.8897383849471
 20
-16.52871680481615
 10
240.840967078048
 20
-16.5679613668064
  0
ARC
  5
AE71C
330
1F
100
AcDbEntity
  8
HI Deatil 2
100
AcDbCircle
 10
240.8864848111173
 20
-16.62112972948927
 30
0.0
 40
0.0699909909499133
100
AcDbArc
 50
130.5670171916522
 51
205.3269231277806
  0
LWPOLYLINE
  5
AE71D
330
1F
100
AcDbEntity
  8
HI Detail 3
100
AcDbPolyline
 90
        2
 70
     0
 43
0.0
 10
240.9679381637604
 20
-16.63852198444601
 10
241.3585806055047
 20
-16.72193356571654
  0
LWPOLYLINE
  5
AE71E
330
1F
100
AcDbEntity
  8
HI Deatil 2
100
AcDbPolyline
 90
        2
 70
     0
 43
0.0
 10
241.43829238415
 20
-16.83052209205357
 10
241.4855516912171
 20
-16.79249418335615
  0
LWPOLYLINE
  5
AE71F
330
1F
100
AcDbEntity
  8
HI Deatil 2
100
AcDbPolyline
 90
        2
 70
     0
 43
0.0
 10
241.4756912846949
 20
-16.65537138030731
 10
241.5032975295236
 20
-16.70938488964356
  0
ARC
  5
AE720
330
1F
100
AcDbEntity
  8
HI Deatil 2
100
AcDbCircle
 10
241.4400339581478
 20
-16.73932582067329
 30
0.0
 40
0.0699909909499133
100
AcDbArc
 50
310.5670171916314
 51
25.32692312775872
  0
LWPOLYLINE
  5
AE721
330
1F
100
AcDbEntity
  8
HI Deatil 2
100
AcDbPolyline
 90
        2
 70
     0
 43
0.0
 10
243.0851967100673
 20
-23.306982882939
 10
243.0226783322127
 20
-23.30378468768566
  0
LWPOLYLINE
  5
AE722
330
1F
100
AcDbEntity
  8
HI Deatil 2
100
AcDbPolyline
 90
        2
 70
     0
 43
0.0
 10
242.9499753575258
 20
-23.18500222229898
 10
242.9595764917202
 20
-23.24686169404452
  0
ARC
  5
AE723
330
1F
100
AcDbEntity
  8
HI Deatil 2
100
AcDbCircle
 10
243.0283805110159
 20
-23.23402636222522
 30
0.0
 40
0.0699909909499133
100
AcDbArc
 50
190.5670171916502
 51
265.3269231277793
  0
LWPOLYLINE
  5
AE724
330
1F
100
AcDbEntity
  8
HI Detail 3
100
AcDbPolyline
 90
        2
 70
     0
 43
0.0
 10
243.0841693219591
 20
-23.17218181709131
 10
243.3517270911813
 20
-22.8755813293796
  0
LWPOLYLINE
  5
AE725
330
1F
100
AcDbEntity
  8
HI Deatil 2
100
AcDbPolyline
 90
        2
 70
     0
 43
0.0
 10
243.4856234028713
 20
-22.86084316726044
 10
243.4763199214201
 20
-22.80090145242639
  0
LWPOLYLINE
  5
AE726
330
1F
100
AcDbEntity
  8
HI Deatil 2
100
AcDbPolyline
 90
        2
 70
     0
 43
0.0
 10
243.3526378872806
 20
-22.74087941344186
 10
243.4132180809277
 20
-22.74397845878519
  0
ARC
  5
AE727
330
1F
100
AcDbEntity
  8
HI Deatil 2
100
AcDbCircle
 10
243.4075159021245
 20
-22.81373678424563
 30
0.0
 40
0.0699909909499133
100
AcDbArc
 50
10.5670171916304
 51
85.32692312775973
  0
LWPOLYLINE
  5
AE728
330
1F
100
AcDbEntity
  8
HI Deatil 2
100
AcDbPolyline
 90
        2
 70
     0
 43
0.0
 10
249.9178551373506
 20
-24.67281257885628
 10
249.8838262300877
 20
-24.72535598465515
  0
LWPOLYLINE
  5
AE729
330
1F
100
AcDbEntity
  8
HI Deatil 2
100
AcDbPolyline
 90
        2
 70
     0
 43
0.0
 10
249.7446061101952
 20
-24.72892737497131
 10
249.8029785512887
 20
-24.75154228472661
  0
ARC
  5
AE72A
330
1F
100
AcDbEntity
  8
HI Deatil 2
100
AcDbCircle
 10
249.826264837515
 20
-24.68553859022444
 30
0.0
 40
0.0699909909499133
100
AcDbArc
 50
250.5670171916507
 51
325.32692312778
  0
LWPOLYLINE
  5
AE72B
330
1F
100
AcDbEntity
  8
HI Detail 3
100
AcDbPolyline
 90
        2
 70
     0
 43
0.0
 10
249.8006002958152
 20
-24.60630179013373
 10
249.6775156232931
 20
-24.22628972115155
  0
LWPOLYLINE
  5
AE72C
330
1F
100
AcDbEntity
  8
HI Deatil 2
100
AcDbPolyline
 90
        2
 70
     0
 43
0.0
 10
249.7317001563378
 20
-24.10296303269536
 10
249.6751373678196
 20
-24.08104922655872
  0
LWPOLYLINE
  5
AE72D
330
1F
100
AcDbEntity
  8
HI Deatil 2
100
AcDbPolyline
 90
        2
 70
     0
 43
0.0
 10
249.5613157402022
 20
-24.15814999062303
 10
249.5942896890206
 20
-24.10723552663012
  0
ARC
  5
AE72E
330
1F
100
AcDbEntity
  8
HI Deatil 2
100
AcDbCircle
 10
249.6518510815932
 20
-24.14705292106083
 30
0.0
 40
0.0699909909499133
100
AcDbArc
 50
70.5670171916301
 51
145.326923127761
  0
LWPOLYLINE
  5
AE72F
330
1F
100
AcDbEntity
  8
HI Deatil 2
100
AcDbPolyline
 90
        2
 70
     0
 43
0.0
 10
254.5170275648998
 20
-19.43847165340577
 10
254.5455170354915
 20
-19.49421325445797
  0
LWPOLYLINE
  5
AE730
330
1F
100
AcDbEntity
  8
HI Deatil 2
100
AcDbPolyline
 90
        2
 70
     0
 43
0.0
 10
254.4789998902859
 20
-19.61656711016081
 10
254.527771197185
 20
-19.57732254817057
  0
ARC
  5
AE731
330
1F
100
AcDbEntity
  8
HI Deatil 2
100
AcDbCircle
 10
254.4822534641157
 20
-19.5241541854877
 30
0.0
 40
0.0699909909499133
100
AcDbArc
 50
310.5670171916523
 51
25.32692312778056
  0
LWPOLYLINE
  5
AE732
330
1F
100
AcDbEntity
  8
HI Detail 3
100
AcDbPolyline
 90
        2
 70
     0
 43
0.0
 10
254.4008001114726
 20
-19.50676193053095
 10
254.0101576697283
 20
-19.42335034926043
  0
LWPOLYLINE
  5
AE733
330
1F
100
AcDbEntity
  8
HI Deatil 2
100
AcDbPolyline
 90
        2
 70
     0
 43
0.0
 10
253.930445891083
 20
-19.3147618229234
 10
253.8831865840159
 20
-19.35278973162082
  0
LWPOLYLINE
  5
AE734
330
1F
100
AcDbEntity
  8
HI Deatil 2
100
AcDbPolyline
 90
        2
 70
     0
 43
0.0
 10
253.8930469905381
 20
-19.48991253466966
 10
253.8654407457094
 20
-19.43589902533341
  0
ARC
  5
AE735
330
1F
100
AcDbEntity
  8
HI Deatil 2
100
AcDbCircle
 10
253.9287043170852
 20
-19.40595809430368
 30
0.0
 40
0.0699909909499133
100
AcDbArc
 50
130.5670171916314
 51
205.3269231277587
  0
CIRCLE
  5
AE736
330
1F
100
AcDbEntity
  8
HI Detail 3
100
AcDbCircle
 10
252.5074431254662
 20
-13.46811733777366
 30
0.0
 40
0.0666157490742099
  0
CIRCLE
  5
AE737
330
1F
100
AcDbEntity
  8
HI Detail 3
100
AcDbCircle
 10
246.1082708385174
 20
-11.59347504982139
 30
0.0
 40
0.0666157490742099
  0
CIRCLE
  5
AE738
330
1F
100
AcDbEntity
  8
HI Detail 3
100
AcDbCircle
 10
241.2851968506678
 20
-16.19799966953616
 30
0.0
 40
0.0666157490742099
  0
CIRCLE
  5
AE739
330
1F
100
AcDbEntity
  8
HI Detail 3
100
AcDbCircle
 10
242.8612951497669
 20
-22.67716657720325
 30
0.0
 40
0.0666157490742099
  0
CIRCLE
  5
AE73A
330
1F
100
AcDbEntity
  8
HI Detail 3
100
AcDbCircle
 10
249.2604674367156
 20
-24.55180886515558
 30
0.0
 40
0.0666157490742099
  0
CIRCLE
  5
AE73B
330
1F
100
AcDbEntity
  8
HI Detail 3
100
AcDbCircle
 10
254.0835414245652
 20
-19.94728424544081
 30
0.0
 40
0.0666157490742099
  0
LWPOLYLINE
  5
AE74E
330
1F
100
AcDbEntity
  8
HI Detail 3
100
AcDbPolyline
 90
        2
 70
     0
 43
0.0
 10
258.8292307173816
 20
-18.35235103064707
 10
258.8292306425421
 20
-17.78752894479152
  0
LINE
  5
AE74F
330
1F
100
AcDbEntity
  8
HI Detail 3
100
AcDbLine
 10
258.3838994673816
 20
-18.30112945748846
 30
0.0
 11
258.3838994673816
 21
-17.83234195748849
 31
0.0
  0
LINE
  5
AE750
330
1F
100
AcDbEntity
  8
HI Detail 3
100
AcDbLine
 10
258.6182932173816
 20
-18.32458570748844
 30
0.0
 11
258.6182932173816
 21
-17.80888570748845
 31
0.0
  0
LWPOLYLINE
  5
AE751
330
1F
100
AcDbEntity
  8
HI Deatil 2
100
AcDbPolyline
 90
        3
 70
     0
 43
0.0
 10
256.882555996342
 20
-18.37149820748851
 10
258.3000307173816
 20
-18.37149820748846
 10
258.3676866950006
 20
-18.41275765253903
  0
LWPOLYLINE
  5
AE752
330
1F
100
AcDbEntity
  8
HI Deatil 2
100
AcDbPolyline
 90
        3
 70
     0
 43
0.0
 10
258.4190858822108
 20
-18.41133399859916
 10
258.4681057173816
 20
-18.37149820748846
 10
258.5862889683274
 20
-18.43339159106568
  0
LWPOLYLINE
  5
AE753
330
1F
100
AcDbEntity
  8
HI Deatil 2
100
AcDbPolyline
 90
        4
 70
     0
 43
0.0
 10
258.6532405873713
 20
-18.43190954422528
 10
258.7330432173816
 20
-18.37149820748846
 10
258.8292307173816
 20
-18.37149820748846
 10
258.8292307173816
 20
-18.35235103064707
  0
LWPOLYLINE
  5
AE754
330
1F
100
AcDbEntity
  8
HI Deatil 2
100
AcDbPolyline
 90
        4
 70
     0
 43
0.0
 10
258.8292307173816
 20
-17.78752894479072
 10
258.8292307173816
 20
-17.77378570748846
 10
258.7330432173816
 20
-17.77378570748846
 10
258.645662632679
 20
-17.70586382442127
  0
LWPOLYLINE
  5
AE755
330
1F
100
AcDbEntity
  8
HI Deatil 2
100
AcDbPolyline
 90
        3
 70
     0
 43
0.0
 10
258.5727514092766
 20
-17.70480406684947
 10
258.4802557173816
 20
-17.76214195748849
 10
258.4109175922865
 20
-17.71980920743039
  0
LWPOLYLINE
  5
AE756
330
1F
100
AcDbEntity
  8
HI Deatil 2
100
AcDbPolyline
 90
        3
 70
     0
 43
0.0
 10
258.3552347027031
 20
-17.72105151479627
 10
258.2880494673816
 20
-17.76214195748849
 10
256.882555996342
 20
-17.76214195748849
  0
ARC
  5
AE757
330
1F
100
AcDbEntity
  8
HI Deatil 2
100
AcDbCircle
 10
258.3839335308427
 20
-17.75886012785804
 30
0.0
 40
0.0474669775554334
100
AcDbArc
 50
55.35565064678039
 51
127.2005084574734
  0
ARC
  5
AE758
330
1F
100
AcDbEntity
  8
HI Deatil 2
100
AcDbCircle
 10
258.3925483912795
 20
-18.38179462453991
 30
0.0
 40
0.0397091053128084
100
AcDbArc
 50
231.2373528630601
 51
311.9357911824918
  0
ARC
  5
AE759
330
1F
100
AcDbEntity
  8
HI Deatil 2
100
AcDbCircle
 10
258.6183225558263
 20
-18.36749803883811
 30
0.0
 40
0.0732673935200399
100
AcDbArc
 50
244.0736921384424
 51
298.4625023450258
  0
ARC
  5
AE75A
330
1F
100
AcDbEntity
  8
HI Deatil 2
100
AcDbCircle
 10
258.6085066942782
 20
-17.75351635810813
 30
0.0
 40
0.0604262172009144
100
AcDbArc
 50
52.05551693379605
 51
126.2790231292141
  0
LWPOLYLINE
  5
AE75B
330
1F
100
AcDbEntity
  8
HI Deatil 2
100
AcDbPolyline
 90
        2
 70
     0
 43
0.0
 10
258.9967960856228
 20
-18.35235103064707
 10
258.8292307173816
 20
-18.35235103064707
  0
LWPOLYLINE
  5
AE75C
330
1F
100
AcDbEntity
  8
HI Deatil 2
100
AcDbPolyline
 90
        2
 70
     0
 43
0.0
 10
258.996838648422
 20
-17.78752717122342
 10
258.8292307173816
 20
-17.78752894479072
  0
LWPOLYLINE
  5
AE75D
330
1F
100
AcDbEntity
  8
HI Deatil 2
100
AcDbPolyline
 90
        2
 70
     0
 43
0.0
 10
258.9967960856228
 20
-18.35235103064707
 10
258.9967901088582
 20
-17.78752717173705
  0
LWPOLYLINE
  5
AE75E
330
1F
100
AcDbEntity
  8
HI Deatil 2
100
AcDbPolyline
 90
        2
 70
     0
 43
0.0
 10
254.5633424118877
 20
-18.6507828553519
 10
254.5633424118877
 20
-18.37149820748851
  0
LWPOLYLINE
  5
AE75F
330
1F
100
AcDbEntity
  8
HI Deatil 2
100
AcDbPolyline
 90
        2
 70
     0
 43
0.0
 10
254.5633424118877
 20
-17.77378570748851
 10
254.5633424118877
 20
-17.49450105962512
  0
LWPOLYLINE
  5
AE760
330
1F
100
AcDbEntity
  8
HI Deatil 2
100
AcDbPolyline
 90
        2
 70
     0
 43
0.0
 10
253.9656299118877
 20
-18.6507828553519
 10
253.9656299118877
 20
-17.49450105962512
  0
LWPOLYLINE
  5
AE761
330
1F
100
AcDbEntity
  8
HI Deatil 2
100
AcDbPolyline
 90
        2
 70
     0
 43
0.0
 10
254.5633424118877
 20
-18.37149820748851
 10
254.9615575789459
 20
-18.37149820748851
  0
LWPOLYLINE
  5
AE762
330
1F
100
AcDbEntity
  8
HI Deatil 2
100
AcDbPolyline
 90
        2
 70
     0
 43
0.0
 10
254.5633424118877
 20
-17.77378570748851
 10
254.9615575789459
 20
-17.77378570748851
  0
LWPOLYLINE
  5
AE763
330
1F
100
AcDbEntity
  8
HI Deatil 2
100
AcDbPolyline
 90
        4
 70
     0
 43
0.0
 10
253.9656299118877
 20
-17.49450105962512
 10
253.8234093198868
 20
-17.49450105962512
 10
253.8234093198868
 20
-17.34243836650967
 10
253.8990817468686
 20
-17.34243836650967
  0
LWPOLYLINE
  5
AE764
330
1F
100
AcDbEntity
  8
HI Deatil 2
100
AcDbPolyline
 90
        4
 70
     0
 43
0.0
 10
254.5633424118877
 20
-17.49450105962512
 10
254.7055630038885
 20
-17.49450105962512
 10
254.7055630038885
 20
-17.34243836650967
 10
254.6364563396023
 20
-17.34243836650967
  0
LWPOLYLINE
  5
AE765
330
1F
100
AcDbEntity
  8
HI Deatil 2
100
AcDbPolyline
 90
        4
 70
     0
 43
0.0
 10
253.9656299118877
 20
-18.6507828553519
 10
253.8234093198868
 20
-18.6507828553519
 10
253.8234093198868
 20
-18.80284554846736
 10
253.8990817468686
 20
-18.80284554846736
  0
LWPOLYLINE
  5
AE766
330
1F
100
AcDbEntity
  8
HI Deatil 2
100
AcDbPolyline
 90
        4
 70
     0
 43
0.0
 10
254.5633424118877
 20
-18.6507828553519
 10
254.7055630038885
 20
-18.6507828553519
 10
254.7055630038885
 20
-18.80284554846736
 10
254.6364563396023
 20
-18.80284554846736
  0
LWPOLYLINE
  5
AE767
330
1F
100
AcDbEntity
  8
HI Deatil 2
100
AcDbPolyline
 90
        4
 70
     0
 43
0.0
 10
254.9615575789459
 20
-17.77378570748851
 10
254.9615575789459
 20
-17.63156511548766
 10
255.1136202720614
 20
-17.63156511548766
 10
255.1136202720614
 20
-17.76214195748849
  0
LWPOLYLINE
  5
AE768
330
1F
100
AcDbEntity
  8
HI Deatil 2
100
AcDbPolyline
 90
        4
 70
     0
 43
0.0
 10
254.9615575789459
 20
-18.37149820748851
 10
254.9615575789459
 20
-18.51371879948937
 10
255.1136202720614
 20
-18.51371879948937
 10
255.1136202720614
 20
-18.35985445748849
  0
LWPOLYLINE
  5
AE769
330
1F
100
AcDbEntity
  8
HI Detail 3
100
AcDbPolyline
 90
        2
 70
     0
 43
0.0
 10
254.0656299118877
 20
-18.80112654385925
 10
254.4633424118877
 20
-18.80112654385925
  0
LWPOLYLINE
  5
AE76A
330
1F
100
AcDbEntity
  8
HI Detail 3
100
AcDbPolyline
 90
        2
 70
     0
 43
0.0
 10
254.0656299118877
 20
-17.34358602792906
 10
254.4633424118877
 20
-17.34358602792906
  0
MTEXT
  5
AE772
330
1F
100
AcDbEntity
  8
HI Text
100
AcDbMText
 10
263.3493551403075
 20
5.511138728387464
 30
0.0
 40
0.5
 41
0.0
 46
0.0
 71
     6
 72
     1
  1
{\fArial|b0|i0|c0|p34;1}
  7
Hunter
 73
     1
 44
1.0
  0
LEADER
  5
AE773
330
1F
100
AcDbEntity
  8
HI Text
100
AcDbLeader
  3
LandMatters
 76
     3
 10
254.15409100057
 20
2.922922583862046
 30
0.0
 10
262.1595887814729
 20
5.480785226733217
 30
0.0
 10
262.7550241702044
 20
5.480785226733175
 30
0.0
211
-0.0000000000000002
221
-1.0
231
0.0
1001
ACAD
1000
DSTYLE
1002
{
1070
    41
1040
0.5
1002
}
  0
CIRCLE
  5
AE774
330
1F
100
AcDbEntity
  8
HI Text
100
AcDbCircle
 10
263.266376792526
 20
5.480785226733189
 30
0.0
 40
0.511352622321557
  0
MTEXT
  5
AE775
330
1F
100
AcDbEntity
  8
HI Text
100
AcDbMText
 10
263.3493551403075
 20
4.488433483744351
 30
0.0
 40
0.5
 41
0.1289222373806289
 46
0.0
 71
     6
 72
     1
  1
{\fArial|b0|i0|c0|p34;2}
  7
Hunter
 73
     1
 44
1.0
  0
LEADER
  5
AE776
330
1F
100
AcDbEntity
  8
HI Text
100
AcDbLeader
  3
LandMatters
 76
     3
 10
253.2806783555693
 20
1.072262278375603
 30
0.0
 10
262.1595887814729
 20
4.458079982090104
 30
0.0
 10
262.7550241702044
 20
4.458079982090062
 30
0.0
211
-0.0000000000000002
221
-1.0
231
0.0
1001
ACAD
1000
DSTYLE
1002
{
1070
    41
1040
0.5
1002
}
  0
CIRCLE
  5
AE777
330
1F
100
AcDbEntity
  8
HI Text
100
AcDbCircle
 10
263.266376792526
 20
4.458079982090076
 30
0.0
 40
0.511352622321557
  0
MTEXT
  5
AE778
330
1F
100
AcDbEntity
  8
HI Text
100
AcDbMText
 10
263.3493551403075
 20
3.465728239101238
 30
0.0
 40
0.5
 41
0.0
 46
0.0
 71
     6
 72
     1
  1
{\fArial|b0|i0|c0|p34;3}
  7
Hunter
 73
     1
 44
1.0
  0
LEADER
  5
AE779
330
1F
100
AcDbEntity
  8
HI Text
100
AcDbLeader
  3
LandMatters
 76
     3
 10
254.7730855911138
 20
-0.3236565821154613
 30
0.0
 10
262.1595887814729
 20
3.435374737446991
 30
0.0
 10
262.7550241702044
 20
3.435374737446948
 30
0.0
211
-0.0000000000000002
221
-1.0
231
0.0
1001
ACAD
1000
DSTYLE
1002
{
1070
    41
1040
0.5
1002
}
  0
CIRCLE
  5
AE77A
330
1F
100
AcDbEntity
  8
HI Text
100
AcDbCircle
 10
263.266376792526
 20
3.435374737446962
 30
0.0
 40
0.511352622321557
  0
MTEXT
  5
AE77B
330
1F
100
AcDbEntity
  8
HI Text
100
AcDbMText
 10
263.3493551403075
 20
2.443022994458124
 30
0.0
 40
0.5
 41
0.0
 46
0.0
 71
     6
 72
     1
  1
{\fArial|b0|i0|c0|p34;4}
  7
Hunter
 73
     1
 44
1.0
  0
LEADER
  5
AE77C
330
1F
100
AcDbEntity
  8
HI Text
100
AcDbLeader
  3
LandMatters
 76
     3
 10
259.9022064808992
 20
0.335762292563885
 30
0.0
 10
262.1595887814729
 20
2.412669492803877
 30
0.0
 10
262.7550241702044
 20
2.412669492803835
 30
0.0
211
-0.0000000000000002
221
-1.0
231
0.0
1001
ACAD
1000
DSTYLE
1002
{
1070
    41
1040
0.5
1002
}
  0
CIRCLE
  5
AE77D
330
1F
100
AcDbEntity
  8
HI Text
100
AcDbCircle
 10
263.266376792526
 20
2.412669492803849
 30
0.0
 40
0.511352622321557
  0
MTEXT
  5
AE77E
330
1F
100
AcDbEntity
  8
HI Text
100
AcDbMText
 10
266.4826548109233
 20
5.807785213823133
 30
0.0
 40
0.5
 41
0.0
 46
0.0
 71
     6
 72
     1
  1
{\fArial|b0|i0|c0|p34;1}
  7
Hunter
 73
     1
 44
1.0
  0
CIRCLE
  5
AE77F
330
1F
100
AcDbEntity
  8
HI Text
100
AcDbCircle
 10
266.411958874841
 20
3.907356204736852
 30
0.0
 40
0.511352622321557
  0
MTEXT
  5
AE780
330
1F
100
AcDbEntity
  8
HI Text
100
AcDbMText
 10
266.4826548109233
 20
3.937709706391127
 30
0.0
 40
0.5
 41
0.0
 46
0.0
 71
     6
 72
     1
  1
{\fArial|b0|i0|c0|p34;2}
  7
Hunter
 73
     1
 44
1.0
  0
CIRCLE
  5
AE781
330
1F
100
AcDbEntity
  8
HI Text
100
AcDbCircle
 10
266.411958874841
 20
5.777431712168858
 30
0.0
 40
0.511352622321557
  0
LWPOLYLINE
  5
AE782
330
1F
100
AcDbEntity
  8
HI Text
100
AcDbPolyline
 90
        2
 70
     0
 43
0.0
 10
265.6464662195757
 20
6.497425619579639
 10
275.4807554822439
 20
6.497425619579639
  0
MTEXT
  5
AE783
330
1F
100
AcDbEntity
  8
HI Text
100
AcDbMText
 10
268.7809254356572
 20
7.055571820617212
 30
0.0
 40
0.7499999999999999
 41
0.0
 46
0.0
 71
     6
 72
     1
  1
{\fArial|b0|i0|c0|p34;LEGEND:}
  7
Hunter
 73
     1
 44
1.0
  0
MTEXT
  5
AE784
330
1F
100
AcDbEntity
  8
HI Text
100
AcDbMText
 10
267.0327676075776
 20
6.093793489564002
 30
0.0
 40
0.5
 41
14.36766712141882
 46
0.6558663028649381
 71
     1
 72
     1
  1
\A1;{\fArial|b0|i0|c0|p34;MINI LANDSCAPE DRIPLINE}
  7
Hunter
 73
     1
 44
1.0
  0
CIRCLE
  5
AE785
330
1F
100
AcDbEntity
  8
HI Text
100
AcDbCircle
 10
266.411958874841
 20
1.919910503242216
 30
0.0
 40
0.511352622321557
  0
MTEXT
  5
AE786
330
1F
100
AcDbEntity
  8
HI Text
100
AcDbMText
 10
266.4826548109233
 20
1.950264004896491
 30
0.0
 40
0.5
 41
0.2318212824010922
 46
0.0
 71
     6
 72
     1
  1
{\fArial|b0|i0|c0|p34;3}
  7
Hunter
 73
     1
 44
1.0
  0
CIRCLE
  5
AE787
330
1F
100
AcDbEntity
  8
HI Text
100
AcDbCircle
 10
266.411958874841
 20
-0.1256400778329167
 30
0.0
 40
0.511352622321557
  0
MTEXT
  5
AE788
330
1F
100
AcDbEntity
  8
HI Text
100
AcDbMText
 10
266.4826548109233
 20
-0.0952865761786415
 30
0.0
 40
0.5
 41
0.2318212824010929
 46
0.0
 71
     6
 72
     1
  1
{\fArial|b0|i0|c0|p34;4}
  7
Hunter
 73
     1
 44
1.0
  0
MTEXT
  5
AE789
330
1F
100
AcDbEntity
  8
HI Text
100
AcDbMText
 10
267.032780783552
 20
-0.0939973722529191
 30
0.0
 40
0.5
 41
14.36766712141882
 46
0.0
 71
     4
 72
     1
  1
\A1;{\fArial|b0|i0|c0|p34;POLYETHYLENE PIPE AS PER PLAN}
  7
Hunter
 73
     1
 44
1.0
  0
MTEXT
  5
AE78A
330
1F
100
AcDbEntity
  8
HI Text
100
AcDbMText
 10
267.0327807835521
 20
4.189489065797313
 30
0.0
 40
0.5
 41
14.36766712141882
 46
0.0
 71
     1
 72
     1
  1
\A1;{\fArial|b0|i0|c0|p34;SHRUB}
  7
Hunter
 73
     1
 44
1.0
  0
MTEXT
  5
AE78B
330
1F
100
AcDbEntity
  8
HI Text
100
AcDbMText
 10
267.032780783552
 20
2.198385971886945
 30
0.0
 40
0.5
 41
14.36766712141882
 46
0.0
 71
     1
 72
     1
  1
\A1;{\fArial|b0|i0|c0|p34;MLD END CAP}
  7
Hunter
 73
     1
 44
1.0
  0
CIRCLE
  5
AE78C
330
1F
100
AcDbEntity
  8
HI Text
100
AcDbCircle
 10
266.411958874841
 20
-1.903906218731866
 30
0.0
 40
0.511352622321557
  0
MTEXT
  5
AE78D
330
1F
100
AcDbEntity
  8
HI Text
100
AcDbMText
 10
266.4826548109233
 20
-1.873552717077591
 30
0.0
 40
0.5
 41
0.2318212824010938
 46
0.0
 71
     6
 72
     1
  1
{\fArial|b0|i0|c0|p34;5}
  7
Hunter
 73
     1
 44
1.0
  0
MTEXT
  5
AE78E
330
1F
100
AcDbEntity
  8
HI Text
100
AcDbMText
 10
267.032780783552
 20
-1.872263513151868
 30
0.0
 40
0.5
 41
14.36766712141882
 46
0.0
 71
     4
 72
     1
  1
\A1;{\fArial|b0|i0|c0|p34;MLD TEE}
  7
Hunter
 73
     1
 44
1.0
  0
MTEXT
  5
AE792
330
1F
100
AcDbEntity
  8
HI Text
100
AcDbMText
 10
263.3493561195232
 20
-12.89726496262381
 30
0.0
 40
0.5
 41
0.0
 46
0.0
 71
     6
 72
     1
  1
{\fArial|b0|i0|c0|p34;1}
  7
Hunter
 73
     1
 44
1.0
  0
LEADER
  5
AE793
330
1F
100
AcDbEntity
  8
HI Text
100
AcDbLeader
  3
LandMatters
 76
     3
 10
254.1540919797857
 20
-15.48548110714923
 30
0.0
 10
262.1595897606886
 20
-12.92761846427806
 30
0.0
 10
262.7550251494201
 20
-12.9276184642781
 30
0.0
211
-0.0000000000000002
221
-1.0
231
0.0
1001
ACAD
1000
DSTYLE
1002
{
1070
    41
1040
0.5
1002
}
  0
CIRCLE
  5
AE794
330
1F
100
AcDbEntity
  8
HI Text
100
AcDbCircle
 10
263.2663777717417
 20
-12.92761846427809
 30
0.0
 40
0.511352622321557
  0
MTEXT
  5
AE795
330
1F
100
AcDbEntity
  8
HI Text
100
AcDbMText
 10
263.3493561195232
 20
-13.91997020726692
 30
0.0
 40
0.5
 41
0.1289222373806289
 46
0.0
 71
     6
 72
     1
  1
{\fArial|b0|i0|c0|p34;2}
  7
Hunter
 73
     1
 44
1.0
  0
LEADER
  5
AE796
330
1F
100
AcDbEntity
  8
HI Text
100
AcDbLeader
  3
LandMatters
 76
     3
 10
253.280679334785
 20
-17.33614141263567
 30
0.0
 10
262.1595897606886
 20
-13.95032370892117
 30
0.0
 10
262.7550251494201
 20
-13.95032370892121
 30
0.0
211
-0.0000000000000002
221
-1.0
231
0.0
1001
ACAD
1000
DSTYLE
1002
{
1070
    41
1040
0.5
1002
}
  0
CIRCLE
  5
AE797
330
1F
100
AcDbEntity
  8
HI Text
100
AcDbCircle
 10
263.2663777717417
 20
-13.9503237089212
 30
0.0
 40
0.511352622321557
  0
MTEXT
  5
AE798
330
1F
100
AcDbEntity
  8
HI Text
100
AcDbMText
 10
263.3493561195232
 20
-14.94267545191004
 30
0.0
 40
0.5
 41
0.0
 46
0.0
 71
     6
 72
     1
  1
{\fArial|b0|i0|c0|p34;5}
  7
Hunter
 73
     1
 44
1.0
  0
LEADER
  5
AE799
330
1F
100
AcDbEntity
  8
HI Text
100
AcDbLeader
  3
LandMatters
 76
     3
 10
254.7730865703294
 20
-18.73206027312674
 30
0.0
 10
262.1595897606886
 20
-14.97302895356428
 30
0.0
 10
262.7550251494201
 20
-14.97302895356433
 30
0.0
211
-0.0000000000000002
221
-1.0
231
0.0
1001
ACAD
1000
DSTYLE
1002
{
1070
    41
1040
0.5
1002
}
  0
CIRCLE
  5
AE79A
330
1F
100
AcDbEntity
  8
HI Text
100
AcDbCircle
 10
263.2663777717417
 20
-14.97302895356431
 30
0.0
 40
0.511352622321557
  0
MTEXT
  5
AE79B
330
1F
100
AcDbEntity
  8
HI Text
100
AcDbMText
 10
263.3493561195232
 20
-15.96538069655315
 30
0.0
 40
0.5
 41
0.0
 46
0.0
 71
     6
 72
     1
  1
{\fArial|b0|i0|c0|p34;4}
  7
Hunter
 73
     1
 44
1.0
  0
LEADER
  5
AE79C
330
1F
100
AcDbEntity
  8
HI Text
100
AcDbLeader
  3
LandMatters
 76
     3
 10
259.9022074601149
 20
-18.07264139844739
 30
0.0
 10
262.1595897606886
 20
-15.9957341982074
 30
0.0
 10
262.7550251494201
 20
-15.99573419820744
 30
0.0
211
-0.0000000000000002
221
-1.0
231
0.0
1001
ACAD
1000
DSTYLE
1002
{
1070
    41
1040
0.5
1002
}
  0
CIRCLE
  5
AE79D
330
1F
100
AcDbEntity
  8
HI Text
100
AcDbCircle
 10
263.2663777717417
 20
-15.99573419820742
 30
0.0
 40
0.511352622321557
  0
VIEWPORT
  5
A21AE
102
{ACAD_XDICTIONARY
360
A21AF
102
}
330
A21A0
100
AcDbEntity
 67
     1
  8
0
100
AcDbViewport
 10
4.021899493660514
 20
4.799458511232391
 30
0.0
 40
24.07570036331255
 41
11.63799974576695
 68
     1
 69
     1
 12
4.021899493660514
 22
4.799458511232391
 13
0.0
 23
0.0
 14
0.5
 24
0.5
 15
0.5
 25
0.5
 16
0.0
 26
0.0
 36
1.0
 17
0.0
 27
0.0
 37
0.0
 42
50.0
 43
0.0
 44
0.0
 45
11.63799974576695
 50
0.0
 51
0.0
 72
  1000
 90
   819232
  1

281
     0
 71
     1
 74
     0
110
0.0
120
0.0
130
0.0
111
1.0
121
0.0
131
0.0
112
0.0
122
1.0
132
0.0
 79
     0
146
0.0
170
     0
 61
     5
348
9F
292
     1
282
     1
141
0.0
142
0.0
 63
   250
421
  3355443
  0
VIEWPORT
  5
A21B2
102
{ACAD_XDICTIONARY
360
A21B3
102
}
330
A21A0
100
AcDbEntity
 67
     1
  8
HI No Print
100
AcDbViewport
 10
4.025506926036062
 20
4.805464943073092
 30
0.0
 40
7.958456254586899
 41
9.529642855474225
 68
     2
 69
     2
 12
358.3572491936215
 22
43.13522870477129
 13
0.0
 23
0.0
 14
0.5
 24
0.5
 15
0.5
 25
0.5
 16
0.0
 26
0.0
 36
178.3294139684135
 17
-100.2903367760448
 27
-56.40334146147367
 37
0.0
 42
50.0
 43
0.0
 44
0.0
 45
45.86856562977697
 50
0.0
 51
0.0
 72
  1000
 90
   557664
  1

281
     0
 71
     1
 74
     0
110
0.0
120
0.0
130
0.0
111
1.0
121
0.0
131
0.0
112
0.0
122
1.0
132
0.0
 79
     0
146
0.0
170
     0
 61
     5
348
9F
292
     1
282
     1
141
0.0
142
0.0
 63
   250
421
  3355443
  0
ENDSEC
  0
SECTION
  2
OBJECTS
  0
DICTIONARY
  5
C
330
0
100
AcDbDictionary
281
     1
  3
ACAD_CIP_PREVIOUS_PRODUCT_INFO
350
5C44A
  3
ACAD_COLOR
350
73
  3
ACAD_DETAILVIEWSTYLE
350
5C43F
  3
ACAD_GROUP
350
D
  3
ACAD_IMAGE_DICT
350
620BA
  3
ACAD_IMAGE_VARS
350
9DA
  3
ACAD_LAYOUT
350
1A
  3
ACAD_MATERIAL
350
72
  3
ACAD_MLEADERSTYLE
350
A33
  3
ACAD_MLINESTYLE
350
17
  3
ACAD_PLOTSETTINGS
350
19
  3
ACAD_PLOTSTYLENAME
350
E
  3
ACAD_RENDER_ACTIVE_RAPIDRT_SETTINGS
350
A0A35
  3
ACAD_RENDER_ACTIVE_SETTINGS
350
A15E5
  3
ACAD_SCALELIST
350
A11
  3
ACAD_SECTIONVIEWSTYLE
350
5C43D
  3
ACAD_TABLESTYLE
350
86
  3
ACAD_VISUALSTYLE
350
99
  3
ACAD_WIPEOUT_VARS
350
14083
  3
AcadDim
350
45186
  3
AcadDim_CRX
350
95AB0
  3
AcAec
350
5C6BE
  3
ACDB_RECOMPOSE_DATA
350
AE7F2
  3
AcDbVariableDictionary
350
66
  3
AEC_CLASSIFICATION_SYSTEM_DEFS
350
F6
  3
AEC_CLEANUP_GROUP_DEFS
350
5C691
  3
AEC_DISP_REP_CONFIGURATIONS
350
5C68F
  3
AEC_DISP_REP_SETS
350
5C686
  3
AEC_DISP_REPS
350
5C560
  3
AEC_DISPLAY_PROPS_DEFAULTS
350
5C562
  3
AEC_LAYERKEY_STYLES
350
5C693
  3
AEC_PROPERTY_SET_DEFS
350
F7
  3
AEC_VARS
350
5C565
  0
DICTIONARY
  5
B51
330
8
100
AcDbDictionary
280
     1
281
     1
  0
DICTIONARY
  5
E7
330
2
100
AcDbDictionary
280
     1
281
     1
  3
ACAD_LAYERFILTERS
360
1DD06
  3
ACAD_LAYERSTATES
360
E8
  3
ACLYDICTIONARY
360
1DD05
  0
DICTIONARY
  5
A6C
330
10
100
AcDbDictionary
280
     1
281
     1
  3
ADSK_XREC_LAYER_RECONCILED
360
A6D
  0
DICTIONARY
  5
9EC2C
330
9EC2B
100
AcDbDictionary
280
     1
281
     1
  0
DICTIONARY
  5
AD360
330
AD35F
100
AcDbDictionary
280
     1
281
     1
  0
DICTIONARY
  5
A62
330
1F
100
AcDbDictionary
280
     1
281
     1
  3
ACAD_SORTENTS
360
A63
  0
DICTIONARY
  5
A21C7
330
A21C6
100
AcDbDictionary
280
     1
281
     1
  3
ASDK_XREC_ANNOTATION_SCALE_INFO
360
A21C8
  0
DICTIONARY
  5
A21CB
330
A21CA
100
AcDbDictionary
280
     1
281
     1
  3
ASDK_XREC_ANNOTATION_SCALE_INFO
360
A21CC
  0
DICTIONARY
  5
A09BD
330
A06C6
100
AcDbDictionary
280
     1
281
     1
  3
ACAD_MTEXT_2008_RT
360
AE7F1
  0
DICTIONARY
  5
A2288
330
A2287
100
AcDbDictionary
280
     1
281
     1
  0
DICTIONARY
  5
A21AF
330
A21AE
100
AcDbDictionary
280
     1
281
     1
  3
ASDK_XREC_ANNOTATION_SCALE_INFO
360
A21B0
  0
DICTIONARY
  5
A21B3
330
A21B2
100
AcDbDictionary
280
     1
281
     1
  3
ASDK_XREC_ANNOTATION_SCALE_INFO
360
A21B4
  0
XRECORD
  5
5C44A
102
{ACAD_REACTORS
330
C
102
}
330
C
100
AcDbXrecord
280
     1
300
ACD
300
2015
300
ACD_F_S
  0
DICTIONARY
  5
73
102
{ACAD_REACTORS
330
C
102
}
330
C
100
AcDbDictionary
281
     1
  0
DICTIONARY
  5
5C43F
102
{ACAD_REACTORS
330
C
102
}
330
C
100
AcDbDictionary
281
     1
  3
Imperial24
350
5C440
  0
DICTIONARY
  5
D
102
{ACAD_REACTORS
330
C
102
}
330
C
100
AcDbDictionary
281
     1
  0
DICTIONARY
  5
620BA
102
{ACAD_REACTORS
330
C
102
}
330
C
100
AcDbDictionary
281
     1
  0
RASTERVARIABLES
  5
9DA
102
{ACAD_REACTORS
330
C
102
}
330
C
100
AcDbRasterVariables
 90
        0
 70
     1
 71
     1
 72
     5
  0
DICTIONARY
  5
1A
102
{ACAD_REACTORS
330
C
102
}
330
C
100
AcDbDictionary
281
     1
  3
8.5 X 11
350
A21A1
  3
A4
350
A21B9
  3
Model
350
22
  0
DICTIONARY
  5
72
102
{ACAD_REACTORS
330
C
102
}
330
C
100
AcDbDictionary
281
     1
  3
ByBlock
350
97
  3
ByLayer
350
96
  3
Global
350
98
  0
DICTIONARY
  5
A33
102
{ACAD_REACTORS
330
C
102
}
330
C
100
AcDbDictionary
281
     1
  3
Standard
350
A34
  0
DICTIONARY
  5
17
102
{ACAD_REACTORS
330
C
102
}
330
C
100
AcDbDictionary
281
     1
  3
Standard
350
18
  0
DICTIONARY
  5
19
102
{ACAD_REACTORS
330
C
102
}
330
C
100
AcDbDictionary
281
     1
  3
500 - 24x36
350
E0
  3
500 - 30x42 Landscape
350
DE
  3
500 - 30x42 Portrait
350
DF
  3
6200 8.5x11
350
1052
  3
9800 - 11x17 Reduced
350
E1
  3
K550 - 8x11 Reduced
350
E2
  0
ACDBDICTIONARYWDFLT
  5
E
102
{ACAD_REACTORS
330
C
102
}
330
C
100
AcDbDictionary
281
     1
  3
Normal
350
F
100
AcDbDictionaryWithDefault
340
F
  0
ACAD_PROXY_OBJECT
  5
A0A35
102
{ACAD_REACTORS
330
C
102
}
330
C
100
AcDbProxyObject
 90
      499
 91
      769
 95
  3276827
 70
     0
162
               534
311
419340194019001A401D401B4024690401C001C001B001A4019401CC008000D4008001C8019401B80190019401C801A401B8019C008001B0019401D8019401B001CC00
161
               201
310
40AE40E4150140502000000000000021000000000000000840CC
 94
        0
  0
MENTALRAYRENDERSETTINGS
  5
A15E5
102
{ACAD_XDICTIONARY
360
A15E6
102
}
102
{ACAD_REACTORS
330
C
102
}
330
C
100
AcDbRenderSettings
 90
        2
  1
Medium
290
     1
290
     1
290
     1
290
     1
  1

  1

 90
        0
100
AcDbMentalRayRenderSettings
 90
        2
 90
        0
 90
        1
 70
     2
 40
3.0
 40
3.0
 40
0.0500000007450581
 40
0.0500000007450581
 40
0.0500000007450581
 40
0.0500000007450581
 70
     0
290
     0
290
     1
 90
        5
 90
        5
 90
        5
290
     0
 90
      500
290
     0
 40
1.0
 90
    10000
 90
        5
 90
        5
 90
        5
290
     0
 90
      200
290
     0
290
     0
290
     0
 40
1.0
 40
1.0
 40
1500.0
 70
     0
 70
     0
 40
10.0
 70
     0
 70
     0
290
     0
  1

 90
       32
 70
     0
 90
     1048
290
     0
 40
1.0
  0
DICTIONARY
  5
A11
102
{ACAD_REACTORS
330
C
102
}
330
C
100
AcDbDictionary
281
     1
  3
*A1
350
4D48B
  3
*A2
350
4D48C
  3
*A3
350
5C55A
  3
*A4
350
5C55B
  3
A0
350
A12
  3
A1
350
1DC91
  3
A2
350
1DC92
  3
A3
350
1DC93
  3
A4
350
1DC94
  3
A5
350
1DC95
  3
A6
350
1DC96
  3
A7
350
1DC97
  3
A8
350
1DC98
  3
A9
350
1DC99
  3
B0
350
1DC9A
  3
B1
350
1DC9B
  3
B2
350
1DC9C
  3
B3
350
1DC9D
  3
B4
350
1DC9E
  3
B5
350
1DC9F
  3
B6
350
1DCA0
  3
B7
350
1DCA1
  3
B8
350
1DCA2
  3
B9
350
1DCA3
  3
C0
350
1DCA4
  3
C1
350
1DCA5
  3
C2
350
1DCA6
  3
C3
350
1DCA7
  3
C4
350
1DCA8
  3
C5
350
1DCA9
  3
C6
350
1DCAA
  3
C7
350
1DCAB
  3
C8
350
1DCAC
  3
C9
350
1DCAD
  3
D0
350
1DCAE
  3
D1
350
1DCAF
  3
D2
350
1DCB0
  0
DICTIONARY
  5
5C43D
102
{ACAD_REACTORS
330
C
102
}
330
C
100
AcDbDictionary
281
     1
  3
Imperial24
350
5C43E
  0
DICTIONARY
  5
86
102
{ACAD_REACTORS
330
C
102
}
330
C
100
AcDbDictionary
281
     1
  3
Standard
350
87
  0
DICTIONARY
  5
99
102
{ACAD_REACTORS
330
C
102
}
330
C
100
AcDbDictionary
281
     1
  3
2dWireframe
350
9F
  3
3D Hidden
350
A1
  3
3dWireframe
350
A0
  3
Basic
350
9E
  3
Brighten
350
A5
  3
ColorChange
350
A9
  3
Conceptual
350
A2
  3
Dim
350
A4
  3
EdgeColorOff
350
5C43C
  3
Facepattern
350
A8
  3
Flat
350
9A
  3
FlatWithEdges
350
9B
  3
Gouraud
350
9C
  3
GouraudWithEdges
350
9D
  3
Hidden
350
5C434
  3
JitterOff
350
5C43A
  3
Linepattern
350
A7
  3
OverhangOff
350
5C43B
  3
Realistic
350
A3
  3
Shaded
350
5C439
  3
Shaded with edges
350
5C438
  3
Shades of Gray
350
5C435
  3
Sketchy
350
5C436
  3
Thicken
350
A6
  3
Wireframe
350
5C433
  3
X-Ray
350
5C437
  0
WIPEOUTVARIABLES
  5
14083
102
{ACAD_REACTORS
330
C
102
}
330
C
100
AcDbWipeoutVariables
 70
     1
  0
XRECORD
  5
45186
102
{ACAD_REACTORS
330
C
102
}
330
C
100
AcDbXrecord
280
     1
 90
   990106
  3

 60
     0
 61
     0
 62
     1
 63
     3
 64
     0
 65
     0
 66
     0
 67
     3
 68
     1
 69
     0
 70
     0
 71
     0
 72
     0
 40
0.0
170
     0
  0
XRECORD
  5
95AB0
102
{ACAD_REACTORS
330
C
102
}
330
C
100
AcDbXrecord
280
     1
 90
   990106
  3

 60
     0
 61
     0
 62
     1
 63
     3
 64
     0
 65
     0
 66
     0
 67
     3
 68
     1
 69
     0
 70
     0
 71
     0
 72
     0
 40
0.0
170
     0
  0
DICTIONARY
  5
5C6BE
102
{ACAD_REACTORS
330
C
102
}
330
C
100
AcDbDictionary
281
     1
  3
AcAecLayerManager
350
5C6BF
  0
XRECORD
  5
AE7F2
102
{ACAD_REACTORS
330
C
102
}
330
C
100
AcDbXrecord
280
     1
 90
        1
330
87
330
5C43E
330
5C440
330
A06C6
  0
DICTIONARY
  5
66
102
{ACAD_REACTORS
330
C
102
}
330
C
100
AcDbDictionary
281
     1
  3
CANNOSCALE
350
B5D
  3
CMLEADERSTYLE
350
B5C
  3
CTABLESTYLE
350
89
  3
CVIEWDETAILSTYLE
350
66F55
  3
CVIEWSECTIONSTYLE
350
66F56
  3
DIMASSOC
350
67
  3
HIDETEXT
350
6B
  3
HPCOLOR
350
9D9A7
  3
HPTRANSPARENCY
350
9D9A6
  3
LAYEREVAL
350
25751
  3
LAYERNOTIFY
350
25752
  3
LIGHTINGUNITS
350
F79
  3
MSLTSCALE
350
F78
  0
DICTIONARY
  5
F6
102
{ACAD_REACTORS
330
C
102
}
330
C
100
AcDbDictionary
281
     1
  0
DICTIONARY
  5
5C691
102
{ACAD_REACTORS
330
C
102
}
330
C
100
AcDbDictionary
281
     1
  3
Standard
350
5C692
  0
DICTIONARY
  5
5C68F
102
{ACAD_REACTORS
330
C
102
}
330
C
100
AcDbDictionary
281
     1
  3
Medium Detail
350
5C6A8
  3
Standard
350
5C690
  0
DICTIONARY
  5
5C686
102
{ACAD_REACTORS
330
C
102
}
330
C
100
AcDbDictionary
281
     1
  3
Elevation
350
5C68A
  3
Model
350
5C687
  3
Model High Detail
350
5C68E
  3
Model Low Detail
350
5C68D
  3
Plan
350
5C688
  3
Plan Diagnostic
350
5C6AB
  3
Plan High Detail
350
5C68C
  3
Plan Low Detail
350
5C68B
  3
Reflected
350
5C689
  3
Section_Elev
350
5C6AE
  0
DICTIONARY
  5
5C560
102
{ACAD_REACTORS
330
C
102
}
330
C
100
AcDbDictionary
281
     1
  3
AecDbDispRep2dSection
350
5C564
  3
AecDbDispRepAnchor
350
5C568
  3
AecDbDispRepAnchorBubToGrid
350
5C604
  3
AecDbDispRepAnchorBubToGridMdl
350
5C621
  3
AecDbDispRepAnchorBubToGridRcp
350
5C608
  3
AecDbDispRepAnchorEntToNode
350
5C569
  3
AecDbDispRepAnchorExtendedTagToEnt
350
5C56B
  3
AecDbDispRepAnchorTagToEnt
350
5C561
  3
AecDbDispRepBdgElevLineModel
350
5C61D
  3
AecDbDispRepBdgElevLinePlan
350
5C5B4
  3
AecDbDispRepBdgElevLinePlan100
350
5C5B8
  3
AecDbDispRepBdgElevLinePlan50
350
5C5F6
  3
AecDbDispRepBdgElevLineRcp
350
5C60E
  3
AecDbDispRepBdgSectionLineModel
350
5C615
  3
AecDbDispRepBdgSectionLinePlan
350
5C5C6
  3
AecDbDispRepBdgSectionLinePlan100
350
5C5BA
  3
AecDbDispRepBdgSectionLinePlan50
350
5C5E9
  3
AecDbDispRepBdgSectionLineRcp
350
5C61B
  3
AecDbDispRepBdgSectionModel
350
5C610
  3
AecDbDispRepBdgSectionSubDiv
350
5C611
  3
AecDbDispRepCeilingGrid
350
5C5BE
  3
AecDbDispRepCeilingGridModel
350
5C613
  3
AecDbDispRepCeilingGridPlan100
350
5C5B6
  3
AecDbDispRepCeilingGridPlan50
350
5C5F0
  3
AecDbDispRepCeilingGridRcp
350
5C606
  3
AecDbDispRepClipVolModel
350
5C56D
  3
AecDbDispRepClipVolPlan
350
5C573
  3
AecDbDispRepClipVolResSubDiv
350
5C579
  3
AecDbDispRepClipVolResult
350
5C580
  3
AecDbDispRepColumnGrid
350
5C5C8
  3
AecDbDispRepColumnGridModel
350
5C617
  3
AecDbDispRepColumnGridPlan100
350
5C5C0
  3
AecDbDispRepColumnGridPlan50
350
5C5E7
  3
AecDbDispRepColumnGridRcp
350
5C619
  3
AecDbDispRepCurtainWallLayoutModel
350
5C61F
  3
AecDbDispRepCurtainWallLayoutPlan
350
5C5BC
  3
AecDbDispRepCurtainWallLayoutPlan100
350
5C5CA
  3
AecDbDispRepCurtainWallLayoutPlan50
350
5C5F8
  3
AecDbDispRepCurtainWallUnitModel
350
5C60A
  3
AecDbDispRepCurtainWallUnitPlan
350
5C5C2
  3
AecDbDispRepCurtainWallUnitPlan100
350
5C5C4
  3
AecDbDispRepCurtainWallUnitPlan50
350
5C5E5
  3
AecDbDispRepDimGroupPlan
350
5C645
  3
AecDbDispRepDimGroupPlan100
350
5C60C
  3
AecDbDispRepDimGroupPlan50
350
5C62B
  3
AecDbDispRepDisplayTheme
350
5C588
  3
AecDbDispRepDoorElev
350
5C635
  3
AecDbDispRepDoorModel
350
5C62D
  3
AecDbDispRepDoorNominal
350
5C639
  3
AecDbDispRepDoorPlan
350
5C63F
  3
AecDbDispRepDoorPlan50
350
5C62F
  3
AecDbDispRepDoorPlanHekto
350
5C625
  3
AecDbDispRepDoorRcp
350
5C641
  3
AecDbDispRepDoorThresholdPlan
350
5C631
  3
AecDbDispRepDoorThresholdSymbolPlan
350
5C623
  3
AecDbDispRepEditInPlaceProfile
350
5C571
  3
AecDbDispRepEntRef
350
5C575
  3
AecDbDispRepLayoutCurve
350
5C577
  3
AecDbDispRepLayoutGrid2d
350
5C56F
  3
AecDbDispRepLayoutGrid3d
350
5C57B
  3
AecDbDispRepMaskBlockRef
350
5C57E
  3
AecDbDispRepMaskBlockRefRcp
350
5C633
  3
AecDbDispRepMassElemModel
350
5C592
  3
AecDbDispRepMassElemPlan100
350
5C63B
  3
AecDbDispRepMassElemPlan50
350
5C637
  3
AecDbDispRepMassElemRcp
350
5C63D
  3
AecDbDispRepMassElemSchem
350
5C58C
  3
AecDbDispRepMassGroupModel
350
5C590
  3
AecDbDispRepMassGroupPlan
350
5C58E
  3
AecDbDispRepMassGroupPlan100
350
5C643
  3
AecDbDispRepMassGroupPlan50
350
5C627
  3
AecDbDispRepMassGroupRcp
350
5C629
  3
AecDbDispRepMaterial
350
5C586
  3
AecDbDispRepMaterial$General Medium Detail
350
5C6B1
  3
AecDbDispRepMvBlockRef
350
5C581
  3
AecDbDispRepMvBlockRef$Plan
350
5C6B4
  3
AecDbDispRepMvBlockRefModel
350
5C57D
  3
AecDbDispRepMvBlockRefPlan100
350
5C5CC
  3
AecDbDispRepMvBlockRefPlan50
350
5C5EB
  3
AecDbDispRepMvBlockRefRcp
350
5C64F
  3
AecDbDispRepOpening
350
5C64D
  3
AecDbDispRepOpeningModel
350
5C647
  3
AecDbDispRepOpeningPlan100
350
5C650
  3
AecDbDispRepOpeningPlan50
350
5C649
  3
AecDbDispRepOpeningPlanReflected
350
5C64B
  3
AecDbDispRepOpeningSillPlan
350
5C652
  3
AecDbDispRepPolygonModel
350
5C582
  3
AecDbDispRepPolygonTrueColour
350
5C584
  3
AecDbDispRepRailingModel
350
5C65E
  3
AecDbDispRepRailingPlan
350
5C654
  3
AecDbDispRepRailingPlan100
350
5C65A
  3
AecDbDispRepRailingPlan50
350
5C65C
  3
AecDbDispRepRoofModel
350
5C656
  3
AecDbDispRepRoofPlan
350
5C5CF
  3
AecDbDispRepRoofPlan100
350
5C5DF
  3
AecDbDispRepRoofPlan50
350
5C5F2
  3
AecDbDispRepRoofRcp
350
5C658
  3
AecDbDispRepRoofSlabModel
350
5C668
  3
AecDbDispRepRoofSlabPlan
350
5C5CD
  3
AecDbDispRepRoofSlabPlan100
350
5C5D5
  3
AecDbDispRepRoofSlabPlan50
350
5C5FA
  3
AecDbDispRepScheduleTable
350
5C684
  3
AecDbDispRepSlabModel
350
5C672
  3
AecDbDispRepSlabPlan
350
5C5DB
  3
AecDbDispRepSlabPlan100
350
5C5D1
  3
AecDbDispRepSlabPlan50
350
5C5F4
  3
AecDbDispRepSlice
350
5C58A
  3
AecDbDispRepSpaceDecomposed
350
5C666
  3
AecDbDispRepSpaceModel
350
5C66C
  3
AecDbDispRepSpacePlan
350
5C5D3
  3
AecDbDispRepSpacePlan100
350
5C5D7
  3
AecDbDispRepSpacePlan50
350
5C5FE
  3
AecDbDispRepSpaceRcp
350
5C664
  3
AecDbDispRepSpaceVolume
350
5C66E
  3
AecDbDispRepStairModel
350
5C660
  3
AecDbDispRepStairPlan
350
5C662
  3
AecDbDispRepStairPlan100
350
5C66A
  3
AecDbDispRepStairPlan50
350
5C670
  3
AecDbDispRepStairPlanOverlapping
350
5C5A6
  3
AecDbDispRepStairRcp
350
5C5A4
  3
AecDbDispRepWallGraph
350
5C5AA
  3
AecDbDispRepWallModel
350
5C596
  3
AecDbDispRepWallPlan
350
5C5DD
  3
AecDbDispRepWallPlan100
350
5C5D9
  3
AecDbDispRepWallPlan50
350
5C5FC
  3
AecDbDispRepWallRcp
350
5C59A
  3
AecDbDispRepWallSchem
350
5C5AC
  3
AecDbDispRepWindowAssemblyModel
350
5C5AE
  3
AecDbDispRepWindowAssemblyPlan
350
5C5EC
  3
AecDbDispRepWindowAssemblyPlan100
350
5C5EE
  3
AecDbDispRepWindowAssemblyPlan50
350
5C602
  3
AecDbDispRepWindowAssemblySillPlan
350
5C5A8
  3
AecDbDispRepWindowElev
350
5C594
  3
AecDbDispRepWindowModel
350
5C5A2
  3
AecDbDispRepWindowNominal
350
5C5B2
  3
AecDbDispRepWindowPlan
350
5C59C
  3
AecDbDispRepWindowPlan100
350
5C59E
  3
AecDbDispRepWindowPlan50
350
5C598
  3
AecDbDispRepWindowRcp
350
5C5B0
  3
AecDbDispRepWindowSillPlan
350
5C5A0
  3
AecDbDispRepZone
350
5C5E3
  3
AecDbDispRepZonePlan100
350
5C5E1
  3
AecDbDispRepZonePlan50
350
5C600
  3
AecsDbDispRepMemberElevationDesign
350
5C67C
  3
AecsDbDispRepMemberElevationDetail
350
5C678
  3
AecsDbDispRepMemberLogical
350
5C676
  3
AecsDbDispRepMemberModelDesign
350
5C67A
  3
AecsDbDispRepMemberModelDetail
350
5C674
  3
AecsDbDispRepMemberPlanDesign
350
5C67E
  3
AecsDbDispRepMemberPlanDetail
350
5C680
  3
AecsDbDispRepMemberPlanSketch
350
5C682
  0
DICTIONARY
  5
5C562
102
{ACAD_REACTORS
330
C
102
}
330
C
100
AcDbDictionary
281
     1
  3
*A1
350
5C563
  3
*A10
350
5C57F
  3
*A100
350
5C614
  3
*A101
350
5C5D2
  3
*A102
350
5C663
  3
*A103
350
5C5C1
  3
*A104
350
5C659
  3
*A105
350
5C5D8
  3
*A106
350
5C5F3
  3
*A107
350
5C57A
  3
*A108
350
5C5F5
  3
*A109
350
5C5DC
  3
*A11
350
5C648
  3
*A110
350
5C5DE
  3
*A111
350
5C5C9
  3
*A112
350
5C626
  3
*A113
350
5C671
  3
*A114
350
5C59B
  3
*A115
350
5C5CE
  3
*A116
350
5C632
  3
*A117
350
5C63A
  3
*A118
350
5C5B9
  3
*A119
350
5C67B
  3
*A12
350
5C62C
  3
*A120
350
5C5FB
  3
*A121
350
5C67F
  3
*A122
350
5C5DA
  3
*A123
350
5C677
  3
*A124
350
5C5FF
  3
*A125
350
5C5A5
  3
*A126
350
5C616
  3
*A127
350
5C603
  3
*A128
350
5C570
  3
*A129
350
5C578
  3
*A13
350
5C585
  3
*A130
350
5C63C
  3
*A131
350
5C5F7
  3
*A132
350
5C57C
  3
*A133
350
5C661
  3
*A134
350
5C58D
  3
*A135
350
5C61A
  3
*A136
350
5C601
  3
*A137
350
5C589
  3
*A138
350
5C576
  3
*A139
350
5C5C3
  3
*A14
350
5C62E
  3
*A140
350
5C5E2
  3
*A141
350
5C59D
  3
*A142
350
5C5A3
  3
*A15
350
5C618
  3
*A16
350
5C67D
  3
*A17
350
5C5B1
  3
*A18
350
5C5E4
  3
*A19
350
5C61E
  3
*A2
350
5C5AD
  3
*A20
350
5C56A
  3
*A21
350
5C572
  3
*A22
350
5C607
  3
*A23
350
5C5BB
  3
*A24
350
5C683
  3
*A25
350
5C64E
  3
*A26
350
5C5BF
  3
*A27
350
5C62A
  3
*A28
350
5C5B7
  3
*A29
350
5C653
  3
*A3
350
5C669
  3
*A30
350
5C5F1
  3
*A31
350
5C66B
  3
*A32
350
5C657
  3
*A33
350
5C630
  3
*A34
350
5C567
  3
*A35
350
5C5CB
  3
*A36
350
5C574
  3
*A37
350
5C64A
  3
*A38
350
5C597
  3
*A39
350
5C59F
  3
*A4
350
5C622
  3
*A40
350
5C5D4
  3
*A41
350
5C66F
  3
*A42
350
5C655
  3
*A43
350
5C5D0
  3
*A44
350
5C673
  3
*A45
350
5C612
  3
*A46
350
5C685
  3
*A47
350
5C634
  3
*A48
350
5C5E6
  3
*A49
350
5C5EF
  3
*A5
350
5C5A1
  3
*A50
350
5C66D
  3
*A51
350
5C5BD
  3
*A52
350
5C5FD
  3
*A53
350
5C636
  3
*A54
350
5C675
  3
*A55
350
5C5F9
  3
*A56
350
5C5ED
  3
*A57
350
5C646
  3
*A58
350
5C65B
  3
*A59
350
5C609
  3
*A6
350
5C60F
  3
*A60
350
5C5C5
  3
*A61
350
5C58B
  3
*A62
350
5C60D
  3
*A63
350
5C681
  3
*A64
350
5C605
  3
*A65
350
5C58F
  3
*A66
350
5C5A7
  3
*A67
350
5C642
  3
*A68
350
5C5A9
  3
*A69
350
5C593
  3
*A7
350
5C595
  3
*A70
350
5C6B7
  3
*A71
350
5C5D6
  3
*A72
350
5C61C
  3
*A73
350
5C65D
  3
*A74
350
5C587
  3
*A75
350
5C5E0
  3
*A76
350
5C5E8
  3
*A77
350
5C679
  3
*A78
350
5C624
  3
*A79
350
5C5AF
  3
*A8
350
5C628
  3
*A80
350
5C591
  3
*A81
350
5C620
  3
*A82
350
5C5B3
  3
*A83
350
5C667
  3
*A84
350
5C5C7
  3
*A85
350
5C56C
  3
*A86
350
5C638
  3
*A87
350
5C640
  3
*A88
350
5C5EA
  3
*A89
350
5C5AB
  3
*A9
350
5C644
  3
*A90
350
5C60B
  3
*A91
350
5C651
  3
*A92
350
5C56E
  3
*A93
350
5C5B5
  3
*A94
350
5C64C
  3
*A95
350
5C63E
  3
*A96
350
5C583
  3
*A97
350
5C599
  3
*A98
350
5C65F
  3
*A99
350
5C665
  0
DICTIONARY
  5
5C693
102
{ACAD_REACTORS
330
C
102
}
330
C
100
AcDbDictionary
281
     1
  3
AIA (256 Color)
350
5C6B8
  0
DICTIONARY
  5
F7
102
{ACAD_REACTORS
330
C
102
}
330
C
100
AcDbDictionary
281
     1
  0
DICTIONARY
  5
5C565
102
{ACAD_REACTORS
330
C
102
}
330
C
100
AcDbDictionary
281
     1
  3
AEC_VARS_ARCHBASE
350
5C6BB
  3
AEC_VARS_DWG_SETUP
350
5C566
  3
AEC_VARS_STRUCTUREBASE
350
5C6BC
  3
AECMX_VARS_MUNICH
350
5C6BD
  0
DICTIONARY
  5
1DD06
102
{ACAD_REACTORS
330
E7
102
}
330
E7
100
AcDbDictionary
281
     1
  0
DICTIONARY
  5
E8
102
{ACAD_REACTORS
330
E7
102
}
330
E7
100
AcDbDictionary
281
     1
  0
DICTIONARY
  5
1DD05
102
{ACAD_REACTORS
330
E7
102
}
330
E7
100
AcDbDictionary
281
     1
1001
ACAD
1000
<All
  0
XRECORD
  5
A6D
102
{ACAD_REACTORS
330
A6C
102
}
330
A6C
100
AcDbXrecord
280
     1
290
     1
  0
SORTENTSTABLE
  5
A63
102
{ACAD_REACTORS
330
A62
102
}
330
A62
100
AcDbSortentsTable
330
1F
331
A06C5
  5
ADE14
331
AE628
  5
AE629
331
AE647
  5
AE648
331
AE666
  5
AE667
331
AE69D
  5
AE69D
331
AE5F2
  5
AE5F3
331
AE618
  5
AE619
331
AE637
  5
AE638
331
AE656
  5
AE657
331
AE685
  5
AE686
331
AE5E2
  5
AE5E3
331
AE601
  5
AE602
331
A06C4
  5
ADE13
331
AE627
  5
AE628
331
AE646
  5
AE647
331
AE665
  5
AE666
331
AE69C
  5
A5E59
331
AE5C2
  5
AE5C3
331
AE5F1
  5
AE5F2
331
AE617
  5
AE618
331
AE636
  5
AE637
331
AE655
  5
AE656
331
AE684
  5
AE685
331
AE5E1
  5
AE5E2
331
AE600
  5
AE601
331
A06C3
  5
ADE12
331
AE626
  5
AE627
331
AE645
  5
AE646
331
AE664
  5
AE665
331
AE5C1
  5
AE5C2
331
AE5F0
  5
AE5F1
331
AE60F
  5
AE610
331
AE635
  5
AE636
331
AE654
  5
AE655
331
AE683
  5
AE684
331
AE5E0
  5
AE5E1
331
AE5FF
  5
AE600
331
AE616
  5
AE617
331
A06C2
  5
ADE11
331
AE625
  5
AE626
331
AE644
  5
AE645
331
AE663
  5
AE664
331
AE5C0
  5
AE5C1
331
AE5EF
  5
AE5F0
331
AE60E
  5
AE60F
331
AE634
  5
AE635
331
AE653
  5
AE654
331
AE682
  5
AE683
331
AE5DF
  5
AE5E0
331
AE5FE
  5
AE5FF
331
AE615
  5
AE616
331
A06C1
  5
ADE10
331
AE624
  5
AE625
331
AE643
  5
AE644
331
AE662
  5
AE663
331
AE5BF
  5
A5E58
331
AE5EE
  5
AE5EF
331
AE60D
  5
AE60E
331
AE75F
  5
AE75F
331
AE633
  5
AE634
331
AE652
  5
AE653
331
AE681
  5
AE682
331
AE5DE
  5
AE5DF
331
AE5FD
  5
AE5FE
331
AE614
  5
AE615
331
AE74F
  5
AE74F
331
A06C0
  5
ADE0F
331
AE623
  5
AE624
331
AE642
  5
AE643
331
AE661
  5
AE662
331
AE5ED
  5
AE5EE
331
AE60C
  5
AE60D
331
AE75E
  5
AE75E
331
AE737
  5
AE737
331
AE632
  5
AE633
331
AE651
  5
AE652
331
AE680
  5
AE681
331
AE5DD
  5
AE5DE
331
AE5FC
  5
AE5FD
331
AE613
  5
AE614
331
AE74E
  5
AE74E
331
AE727
  5
AE727
331
A06BF
  5
AD11B
331
AE622
  5
AE623
331
AE641
  5
AE642
331
AE660
  5
AE661
331
AE5EC
  5
AE5ED
331
AE75D
  5
AE75D
331
AE736
  5
AE736
331
AE631
  5
AE632
331
AE650
  5
AE651
331
AE5FB
  5
AE5FC
331
AE612
  5
AE613
331
AE726
  5
AE726
331
AE70F
  5
AE70F
331
A06BE
  5
AD11A
331
AE621
  5
AE622
331
AE640
  5
AE641
331
AE5EB
  5
AE5EC
331
AE60A
  5
AE60C
331
AE75C
  5
AE75C
331
AE735
  5
AE735
331
AE6FF
  5
AE6FF
331
AE630
  5
AE631
331
AE5FA
  5
AE5FB
331
AE611
  5
AE612
331
AE725
  5
AE725
331
AE6EF
  5
AE6EF
331
AE70E
  5
AE70E
331
A06BD
  5
AD119
331
AE620
  5
AE621
331
AE5EA
  5
AE5EB
331
AE609
  5
AE60A
331
AE75B
  5
AE75B
331
AE734
  5
AE734
331
AE6FE
  5
AE6FE
331
AE5F9
  5
AE5FA
331
AE610
  5
AE611
331
AE76A
  5
AE76A
331
AE724
  5
AE724
331
AE6CF
  5
AE6CF
331
AE6EE
  5
AE6EE
331
AE70D
  5
AE70D
331
A06BC
  5
AD118
331
AE5E9
  5
AE5EA
331
AE608
  5
AE609
331
AE75A
  5
AE75A
331
AE733
  5
AE733
331
AE6BF
  5
AE6BF
331
AE6DE
  5
AE6DE
331
AE6FD
  5
AE6FD
331
AE5F8
  5
AE5F9
331
AE769
  5
AE769
331
AE723
  5
AE723
331
AE6AF
  5
AE6AF
331
AE6CE
  5
AE6CE
331
AE6ED
  5
AE6ED
331
AE70C
  5
AE70C
331
A06BB
  5
AD116
331
AE5E8
  5
AE5E9
331
AE759
  5
AE759
331
AE732
  5
AE732
331
AE6BE
  5
AE6BE
331
AE6DD
  5
AE6DD
331
AE6FC
  5
AE6FC
331
AE768
  5
AE768
331
AE722
  5
AE722
331
AE6AE
  5
AE6AE
331
AE6CD
  5
AE6CD
331
AE6EC
  5
AE6EC
331
AE70B
  5
AE70B
331
A06BA
  5
AD111
331
AE758
  5
AE758
331
AE731
  5
AE731
331
AE6BD
  5
AE6BD
331
AE6DC
  5
AE6DC
331
AE6FB
  5
AE6FB
331
AE767
  5
AE767
331
AE721
  5
AE721
331
AE6AD
  5
AE6AD
331
AE6CC
  5
AE6CC
331
AE6EB
  5
AE6EB
331
AE70A
  5
AE70A
331
A06B9
  5
AD112
331
AE730
  5
AE730
331
AE6BC
  5
AE6BC
331
AE6DB
  5
AE6DB
331
AE6FA
  5
AE6FA
331
AE757
  5
AE757
331
A06C8
  5
ADE17
331
AE720
  5
AE720
331
AE6AC
  5
AE6AC
331
AE6CB
  5
AE6CB
331
AE6EA
  5
AE6EA
331
AE709
  5
AE709
331
AE766
  5
AE766
331
A06B8
  5
AD110
331
AE72F
  5
AE72F
331
AE6BB
  5
AE6BB
331
AE6DA
  5
AE6DA
331
AE6F9
  5
AE6F9
331
AE756
  5
AE756
331
AE71F
  5
AE71F
331
AE6AB
  5
AE6AB
331
AE6CA
  5
AE6CA
331
AE6E9
  5
AE6E9
331
AE708
  5
AE708
331
AE765
  5
AE765
331
AE72E
  5
AE72E
331
AE6BA
  5
AE6BA
331
AE6D9
  5
AE6D9
331
AE6F8
  5
AE6F8
331
AE717
  5
AE717
331
AE755
  5
AE755
331
AE71E
  5
AE71E
331
AE707
  5
AE707
331
AE6AA
  5
AE6AA
331
AE6C9
  5
AE6C9
331
AE6E8
  5
AE6E8
331
AE764
  5
AE764
331
AE72D
  5
AE72D
331
AE6F7
  5
AE6F7
331
AE6B9
  5
AE6B9
331
AE6D8
  5
AE6D8
331
AE716
  5
AE716
331
AE754
  5
AE754
331
AE71D
  5
AE71D
331
AE6E7
  5
AE6E7
331
AE706
  5
AE706
331
AE6A9
  5
AE6A9
331
AE6C8
  5
AE6C8
331
AE763
  5
AE763
331
AE72C
  5
AE72C
331
AE6D7
  5
AE6D7
331
AE6F6
  5
AE6F6
331
AE6B8
  5
AE6B8
331
AE715
  5
AE715
331
AE753
  5
AE753
331
AE71C
  5
AE71C
331
AE73B
  5
AE73B
331
AE6C7
  5
AE6C7
331
AE6E6
  5
AE6E6
331
AE705
  5
AE705
331
AE6A8
  5
AE6A8
331
AE762
  5
AE762
331
AE72B
  5
AE72B
331
AE6B7
  5
AE6B7
331
AE6D6
  5
AE6D6
331
AE6F5
  5
AE6F5
331
AE714
  5
AE714
331
AE752
  5
AE752
331
A2287
  5
ADE18
331
AE71B
  5
AE71B
331
AE73A
  5
AE73A
331
AE6A7
  5
AE6A7
331
AE6C6
  5
AE6C6
331
AE6E5
  5
AE6E5
331
AE704
  5
AE704
331
AE761
  5
AE761
331
AE72A
  5
AE72A
331
AE6B6
  5
AE6B6
331
AE6D5
  5
AE6D5
331
AE6F4
  5
AE6F4
331
AE713
  5
AE713
331
AE751
  5
AE751
331
AE71A
  5
AE71A
331
AE739
  5
AE739
331
AE6A6
  5
AE6A6
331
AE6C5
  5
AE6C5
331
AE6E4
  5
AE6E4
331
AE703
  5
AE703
331
AE760
  5
AE760
331
AE729
  5
AE729
331
AE6B5
  5
AE6B5
331
AE6D4
  5
AE6D4
331
AE6F3
  5
AE6F3
331
AE712
  5
AE712
331
AE750
  5
AE750
331
AE719
  5
AE719
331
AE738
  5
AE738
331
AE6A5
  5
AE6A5
331
AE6C4
  5
AE6C4
331
AE6E3
  5
AE6E3
331
AE702
  5
AE702
331
AE711
  5
AE711
331
AE728
  5
AE728
331
AE6B4
  5
AE6B4
331
AE6D3
  5
AE6D3
331
AE6F2
  5
AE6F2
331
AE718
  5
AE718
331
AE6A4
  5
AE6A4
331
AE6C3
  5
AE6C3
331
AE6E2
  5
AE6E2
331
AE701
  5
AE701
331
AE710
  5
AE710
331
AE6B3
  5
AE6B3
331
AE6D2
  5
AE6D2
331
AE6F1
  5
AE6F1
331
AE6A3
  5
AE6A3
331
AE6C2
  5
AE6C2
331
AE6E1
  5
AE6E1
331
AE700
  5
AE700
331
AE6B2
  5
AE6B2
331
AE6D1
  5
AE6D1
331
AE6F0
  5
AE6F0
331
AE6A2
  5
AE6A2
331
AE6C1
  5
AE6C1
331
AE6E0
  5
AE6E0
331
AE67F
  5
AE680
331
AE6B1
  5
AE6B1
331
AE6D0
  5
AE6D0
331
AE65F
  5
AE660
331
AE6A1
  5
AE6A1
331
AE6C0
  5
AE6C0
331
AE64F
  5
AE650
331
AE67E
  5
AE67F
331
AE6B0
  5
AE6B0
331
AE63F
  5
AE640
331
AE65E
  5
AE65F
331
AE6A0
  5
AE6A0
331
AE62F
  5
AE630
331
AE64E
  5
AE64F
331
AE67D
  5
AE67E
331
AE61F
  5
AE620
331
AE63E
  5
AE63F
331
AE65D
  5
AE65E
331
AE68C
  5
AE68D
331
AE62E
  5
AE62F
331
AE64D
  5
AE64E
331
AE67C
  5
AE67D
331
AE607
  5
AE608
331
AE61E
  5
AE61F
331
AE63D
  5
AE63E
331
AE65C
  5
AE65D
331
AE68B
  5
AE68C
331
AE62D
  5
AE62E
331
AE64C
  5
AE64D
331
AE67B
  5
AE67C
331
AE5F7
  5
AE5F8
331
AC973
  5
AD117
331
AE61D
  5
AE61E
331
AE63C
  5
AE63D
331
AE65B
  5
AE65C
331
AE68A
  5
AE68B
331
AE5E7
  5
AE5E8
331
AE606
  5
AE607
331
AE62C
  5
AE62D
331
AE64B
  5
AE64C
331
AE67A
  5
AE67B
331
AE5F6
  5
AE5F7
331
AE61C
  5
AE61D
331
AE63B
  5
AE63C
331
AE65A
  5
AE65B
331
AE689
  5
AE68A
331
AE5E6
  5
AE5E7
331
AE605
  5
AE606
331
AE62B
  5
AE62C
331
AE64A
  5
AE64B
331
AE5F5
  5
AE5F6
331
AE61B
  5
AE61C
331
AE63A
  5
AE63B
331
AE659
  5
AE65A
331
AE688
  5
AE689
331
AE5E5
  5
AE5E6
331
AE604
  5
AE605
331
A06C7
  5
ADE16
331
AE62A
  5
AE62B
331
AE649
  5
AE64A
331
AE69F
  5
AE69F
331
AE5F4
  5
AE5F5
331
AE61A
  5
AE61B
331
AE639
  5
AE63A
331
AE658
  5
AE659
331
AE687
  5
AE688
331
AE5E4
  5
AE5E5
331
AE603
  5
AE604
331
A06C6
  5
ADE15
331
AE629
  5
AE62A
331
AE648
  5
AE649
331
AE667
  5
AE668
331
AE69E
  5
AE69E
331
AE5F3
  5
AE5F4
331
AE619
  5
AE61A
331
AE638
  5
AE639
331
AE657
  5
AE658
331
AE686
  5
AE687
331
AE5E3
  5
AE5E4
331
AE602
  5
AE603
  0
XRECORD
  5
A21C8
102
{ACAD_REACTORS
330
A21C7
102
}
330
A21C7
100
AcDbXrecord
280
     1
 90
        1
340
1DCB0
  0
XRECORD
  5
A21CC
102
{ACAD_REACTORS
330
A21CB
102
}
330
A21CB
100
AcDbXrecord
280
     1
 90
        1
340
A12
  0
XRECORD
  5
AE7F1
102
{ACAD_REACTORS
330
A09BD
102
}
330
A09BD
100
AcDbXrecord
280
     1
 40
128041.0
  1
\pxql;{\fArial|b0|i0|c0|p34;MINI LANDSCAPE DRIPLINE - SHRUB RING}
  0
XRECORD
  5
A21B0
102
{ACAD_REACTORS
330
A21AF
102
}
330
A21AF
100
AcDbXrecord
280
     1
 90
        1
340
1DCB0
  0
XRECORD
  5
A21B4
102
{ACAD_REACTORS
330
A21B3
102
}
330
A21B3
100
AcDbXrecord
280
     1
 90
        1
340
A12
  0
ACDBDETAILVIEWSTYLE
  5
5C440
102
{ACAD_XDICTIONARY
360
A21DF
102
}
102
{ACAD_REACTORS
330
5C43F
102
}
330
5C43F
100
AcDbModelDocViewStyle
 70
     0
  3
Imperial24
290
     0
100
AcDbDetailViewStyle
 70
     0
 71
     0
 90
        3
 71
     1
340
11
 62
   256
 40
0.24
340
0
 62
   256
 40
0.24
300

 40
0.36
280
     3
 71
     2
340
16
 90
       25
 62
   256
 71
     3
340
11
 62
   256
 40
0.24
 90
        1
 40
0.75
 90
        1
300
%<\AcVar ViewType \f "%tc1">% %<\AcVar ViewDetailId>%\PSCALE %<\AcVar ViewScale \f "%sn">%
 71
     4
340
16
 90
       25
 62
   256
340
16
 90
       25
 62
   256
280
     0
  0
LAYOUT
  5
A21A1
102
{ACAD_REACTORS
330
1A
102
}
330
1A
100
AcDbPlotSettings
  1

  2
DWG To PDF.pc3
  4
ANSI_A_(8.50_x_11.00_Inches)
  6

 40
5.793749809265136
 41
17.79375076293945
 42
5.793746948242187
 43
17.79376220703125
 44
215.8999938964844
 45
279.3999938964844
 46
0.0
 47
0.0
 48
0.0
 49
0.0
140
0.0
141
0.0
142
1.0
143
1.0
 70
   688
 72
     0
 73
     0
 74
     5
  7
Hunter Industries.ctb
 75
    16
147
1.0
 76
     0
 77
     2
 78
   300
148
0.0
149
0.0
100
AcDbLayout
  1
8.5 X 11
 70
     1
 71
     1
 10
-0.2281003861915408
 20
-0.7005413686196636
 11
8.271899373512569
 21
10.29945839108444
 12
0.0
 22
0.0
 32
0.0
 14
0.0459132722802274
 24
0.0401660391341245
 34
-0.0000000000000058
 15
8.005463741397988
 25
9.570500301888532
 35
0.0000000000000104
146
0.0
 13
0.0
 23
0.0
 33
0.0
 16
1.0
 26
0.0
 36
0.0
 17
0.0
 27
1.0
 37
0.0
 76
     0
330
A21A0
331
A21AE
1001
ACAD_PSEXT
1000
DWG To PDF.pc3
1000
DWG To PDF
1000
File
1000

1070
     0
  0
LAYOUT
  5
A21B9
102
{ACAD_REACTORS
330
1A
102
}
330
1A
100
AcDbPlotSettings
  1

  2
DWG To PDF.pc3
  4
ISO_A4_(210.00_x_297.00_MM)
  6

 40
5.793749809265136
 41
17.79375076293945
 42
5.793746948242187
 43
17.79376220703125
 44
210.0
 45
297.0
 46
0.0
 47
0.0
 48
0.0
 49
0.0
140
0.0
141
0.0
142
1.0
143
0.0393700787401575
 70
   672
 72
     1
 73
     0
 74
     5
  7
Hunter Industries.ctb
 75
    16
147
25.4
 76
     0
 77
     2
 78
   300
148
0.0
149
0.0
100
AcDbLayout
  1
A4
 70
     1
 71
     2
 10
-0.2281003861915408
 20
-0.7005413686196636
 11
8.039616149241531
 21
10.99237201720711
 12
0.0
 22
0.0
 32
0.0
 14
0.0145643619954186
 24
0.0132348038147043
 34
-0.0000000000112498
 15
7.780281751193552
 25
10.25767940541772
 35
0.0000000000002956
146
0.0
 13
0.0
 23
0.0
 33
0.0
 16
1.0
 26
0.0
 36
0.0
 17
0.0
 27
1.0
 37
0.0
 76
     0
330
A21B8
331
A21C6
1001
ACAD_PSEXT
1000
DWG To PDF.pc3
1000
DWG To PDF
1000
File
1000

1070
     0
  0
LAYOUT
  5
22
102
{ACAD_XDICTIONARY
360
66EB6
102
}
102
{ACAD_REACTORS
330
1A
102
}
330
1A
100
AcDbPlotSettings
  1

  2
DWG To PDF.pc3
  4
ANSI_full_bleed_A_(8.50_x_11.00_Inches)
  6

 40
0.7937499880790711
 41
0.7937499880790711
 42
0.7937469482421875
 43
0.79376220703125
 44
215.8999938964844
 45
279.3999938964844
 46
30.37052290086102
 47
0.0
 48
-146.9342066687381
 49
-1.639012634498612
140
-81.17209046769231
141
34.71350671378767
142
1.0
143
6.012536734408003
 70
 11956
 72
     0
 73
     1
 74
     4
  7
Standard Pen Settings.ctb
 75
     0
147
0.1663191501645703
 76
     0
 77
     2
 78
   300
148
3732.128849385947
149
41.63092091626476
100
AcDbLayout
  1
Model
 70
     1
 71
     0
 10
0.0
 20
0.0
 11
12.0
 21
9.0
 12
0.0
 22
0.0
 32
0.0
 14
0.0
 24
0.0
 34
0.0
 15
0.0
 25
0.0
 35
0.0
146
0.0
 13
0.0
 23
0.0
 33
0.0
 16
1.0
 26
0.0
 36
0.0
 17
0.0
 27
1.0
 37
0.0
 76
     0
330
1F
331
DAB
1001
ACAD_PSEXT
1000
DWG To PDF.pc3
1000
DWG To PDF
1000
File
1000

1070
     0
  0
MATERIAL
  5
97
102
{ACAD_REACTORS
330
72
102
}
330
72
100
AcDbMaterial
  1
ByBlock
 73
     1
 78
     1
172
     1
176
     1
270
     1
274
     1
 94
       63
  0
MATERIAL
  5
96
102
{ACAD_REACTORS
330
72
102
}
330
72
100
AcDbMaterial
  1
ByLayer
 73
     1
 78
     1
172
     1
176
     1
270
     1
274
     1
 94
       63
  0
MATERIAL
  5
98
102
{ACAD_REACTORS
330
72
102
}
330
72
100
AcDbMaterial
  1
Global
 73
     1
 78
     1
172
     1
176
     1
270
     1
274
     1
 94
       63
  0
MLEADERSTYLE
  5
A34
102
{ACAD_REACTORS
330
A33
102
}
330
A33
100
AcDbMLeaderStyle
179
     2
170
     2
171
     1
172
     0
 90
        2
 40
0.0
 41
0.0
173
     1
 91
-1056964608
340
14
 92
       -2
290
     1
 42
0.09
291
     1
 43
0.36
  3
Standard
 44
0.18
300

342
11
174
     1
178
     6
175
     1
176
     0
 93
-1056964608
 45
0.18
292
     0
297
     0
 46
0.18
 94
-1056964608
 47
1.0
 49
1.0
140
1.0
293
     1
141
0.0
294
     1
177
     0
142
1.0
295
     0
296
     0
143
0.125
271
     0
272
     9
273
     9
298
     0
  0
MLINESTYLE
  5
18
102
{ACAD_REACTORS
330
17
102
}
330
17
100
AcDbMlineStyle
  2
STANDARD
 70
     0
  3

 62
   256
 51
90.0
 52
90.0
 71
     2
 49
0.5
 62
   256
  6
BYLAYER
 49
-0.5
 62
   256
  6
BYLAYER
  0
PLOTSETTINGS
  5
E0
102
{ACAD_REACTORS
330
19
102
}
330
19
100
AcDbPlotSettings
  1
500 - 24x36
  2
HP DesignJet 500 42 by HP.pc3
  4
User1659
  6

 40
0.0
 41
0.0
 42
0.0
 43
0.0
 44
914.4000244140626
 45
609.6000366210937
 46
0.0000122070312948
 47
0.000018310546897
 48
0.0
 49
0.0
140
36.0
141
24.0
142
1.0
143
1.0
 70
  2740
 72
     0
 73
     0
 74
     4
  7
DVD 2005.ctb
 75
    16
147
1.0
 76
     0
 77
     2
 78
   300
148
0.0
149
0.0
1001
ACAD_PSEXT
1000
HP DesignJet 500 42 by HP.pc3
1000
HP DesignJet 500 42 by HP
1000
\\bobxp2
1000

1070
     0
  0
PLOTSETTINGS
  5
DE
102
{ACAD_REACTORS
330
19
102
}
330
19
100
AcDbPlotSettings
  1
500 - 30x42 Landscape
  2
HP DesignJet 500 42 by HP.pc3
  4
User637
  6

 40
0.0
 41
0.0
 42
0.0
 43
0.0
 44
762.0
 45
1066.800048828125
 46
-0.0000000000000902
 47
0.0000244140624993
 48
-44.0
 49
0.0000000000000071
140
-2.0
141
30.00000000000002
142
1.0
143
1.0
 70
  2804
 72
     0
 73
     1
 74
     4
  7
DVD 2005.ctb
 75
    16
147
1.0
 76
     0
 77
     2
 78
   300
148
1117.6
149
-0.0000000000001805
1001
ACAD_PSEXT
1000
HP DesignJet 500 42 by HP.pc3
1000
HP DesignJet 500 42 by HP
1000
\\bobxp2
1000

1070
     0
  0
PLOTSETTINGS
  5
DF
102
{ACAD_REACTORS
330
19
102
}
330
19
100
AcDbPlotSettings
  1
500 - 30x42 Portrait
  2
HP DesignJet 500 42 by HP.pc3
  4
User637
  6

 40
0.0
 41
0.0
 42
0.0
 43
0.0
 44
762.0
 45
1066.800048828125
 46
-0.0000000000000902
 47
0.0000244140626798
 48
-38.0
 49
34.00000000000002
140
-7.999999999999992
141
76.0
142
1.0
143
1.0
 70
  2804
 72
     0
 73
     0
 74
     4
  7
DVD 2005.ctb
 75
    16
147
1.0
 76
     0
 77
     2
 78
   300
148
965.1999999999999
149
-863.6000000000004
1001
ACAD_PSEXT
1000
HP DesignJet 500 42 by HP.pc3
1000
HP DesignJet 500 42 by HP
1000
\\bobxp2
1000

1070
     0
  0
PLOTSETTINGS
  5
1052
102
{ACAD_REACTORS
330
19
102
}
330
19
100
AcDbPlotSettings
  1
6200 8.5x11
  2
HP Officejet 6200 series (Copy 1)
  4
Letter
  6

 40
3.96875
 41
3.799404859542846
 42
3.968734741210937
 43
3.17498779296875
 44
215.8999938964844
 45
279.3999938964844
 46
0.0
 47
0.0
 48
0.0
 49
0.0
140
0.0
141
0.0
142
1.0
143
1.0
 70
 15024
 72
     0
 73
     1
 74
     5
  7
DVD 2005.ctb
 75
    16
147
1.0
 76
     0
 77
     2
 78
   300
148
0.0
149
0.0
1001
ACAD_PSEXT
1000
HP Officejet 6200 series (Copy 1)
1000
HP Officejet 6200 series
1000
USB002
1000

1070
     0
  0
PLOTSETTINGS
  5
E1
102
{ACAD_REACTORS
330
19
102
}
330
19
100
AcDbPlotSettings
  1
9800 - 11x17 Reduced
  2
HP Deskjet 9800 Series.pc3
  4
Tabloid
  6

 40
4.011083126068115
 41
15.65274238586425
 42
4.011077880859375
 43
3.17498779296875
 44
279.3999938964844
 45
431.7999877929687
 46
0.0
 47
2.952754139900229
 48
0.0
 49
0.0
140
36.0
141
24.0
142
1.0
143
2.246314643717012
 70
  2740
 72
     0
 73
     1
 74
     4
  7
DVD 2005.ctb
 75
     0
147
0.4451736103831314
 76
     0
 77
     2
 78
   300
148
0.0
149
0.0
1001
ACAD_PSEXT
1000
HP Deskjet 9800 Series.pc3
1000
HP Deskjet 9800 Series
1000
\\Server
1000

1070
     0
  0
PLOTSETTINGS
  5
E2
102
{ACAD_REACTORS
330
19
102
}
330
19
100
AcDbPlotSettings
  1
K550 - 8x11 Reduced
  2
HP Officejet Pro K550 Series.pc3
  4
Letter
  6

 40
4.095749855041503
 41
12.73173427581787
 42
4.095748901367187
 43
4.09576416015625
 44
215.8999938964844
 45
279.3999938964844
 46
16.3300824165344
 47
0.0
 48
0.0
 49
0.0
140
36.0
141
24.0
142
1.0
143
3.482466807486017
 70
  2804
 72
     0
 73
     1
 74
     4
  7
DVD 2005.ctb
 75
     0
147
0.2871527728133314
 76
     0
 77
     2
 78
   300
148
0.0
149
0.0
1001
ACAD_PSEXT
1000
HP Officejet Pro K550 Series.pc3
1000
HP Officejet Pro K550 Series
1000
Next to Jodi
1000

1070
     0
  0
ACDBPLACEHOLDER
  5
F
102
{ACAD_REACTORS
330
E
102
}
330
E
  0
DICTIONARY
  5
A15E6
330
A15E5
100
AcDbDictionary
280
     1
281
     1
  3
ADSK_XREC_MENTALRAYSETTINGSINFO
360
A15E7
  0
SCALE
  5
4D48B
102
{ACAD_REACTORS
330
A11
102
}
330
A11
100
AcDbScale
 70
     0
300
1" = 40'
140
1.0
141
40.0
290
     0
  0
SCALE
  5
4D48C
102
{ACAD_REACTORS
330
A11
102
}
330
A11
100
AcDbScale
 70
     0
300
1" = 1'
140
1.0
141
1.0
290
     0
  0
SCALE
  5
5C55A
102
{ACAD_REACTORS
330
A11
102
}
330
A11
100
AcDbScale
 70
     0
300
1" =10'_XREF
140
1.0
141
10.0
290
     0
  0
SCALE
  5
5C55B
102
{ACAD_REACTORS
330
A11
102
}
330
A11
100
AcDbScale
 70
     0
300
2" = 1'-0"_XREF
140
2.0
141
12.0
290
     0
  0
SCALE
  5
A12
102
{ACAD_REACTORS
330
A11
102
}
330
A11
100
AcDbScale
 70
     0
300
1:1
140
1.0
141
1.0
290
     0
  0
SCALE
  5
1DC91
102
{ACAD_REACTORS
330
A11
102
}
330
A11
100
AcDbScale
 70
     0
300
1:2
140
1.0
141
2.0
290
     0
  0
SCALE
  5
1DC92
102
{ACAD_REACTORS
330
A11
102
}
330
A11
100
AcDbScale
 70
     0
300
1:4
140
1.0
141
4.0
290
     0
  0
SCALE
  5
1DC93
102
{ACAD_REACTORS
330
A11
102
}
330
A11
100
AcDbScale
 70
     0
300
1:5
140
1.0
141
5.0
290
     0
  0
SCALE
  5
1DC94
102
{ACAD_REACTORS
330
A11
102
}
330
A11
100
AcDbScale
 70
     0
300
1:8
140
1.0
141
8.0
290
     0
  0
SCALE
  5
1DC95
102
{ACAD_REACTORS
330
A11
102
}
330
A11
100
AcDbScale
 70
     0
300
1:10
140
1.0
141
10.0
290
     0
  0
SCALE
  5
1DC96
102
{ACAD_REACTORS
330
A11
102
}
330
A11
100
AcDbScale
 70
     0
300
1:16
140
1.0
141
16.0
290
     0
  0
SCALE
  5
1DC97
102
{ACAD_REACTORS
330
A11
102
}
330
A11
100
AcDbScale
 70
     0
300
1:20
140
1.0
141
20.0
290
     0
  0
SCALE
  5
1DC98
102
{ACAD_REACTORS
330
A11
102
}
330
A11
100
AcDbScale
 70
     0
300
1:30
140
1.0
141
30.0
290
     0
  0
SCALE
  5
1DC99
102
{ACAD_REACTORS
330
A11
102
}
330
A11
100
AcDbScale
 70
     0
300
1:40
140
1.0
141
40.0
290
     0
  0
SCALE
  5
1DC9A
102
{ACAD_REACTORS
330
A11
102
}
330
A11
100
AcDbScale
 70
     0
300
1:50
140
1.0
141
50.0
290
     0
  0
SCALE
  5
1DC9B
102
{ACAD_REACTORS
330
A11
102
}
330
A11
100
AcDbScale
 70
     0
300
1:100
140
1.0
141
100.0
290
     0
  0
SCALE
  5
1DC9C
102
{ACAD_REACTORS
330
A11
102
}
330
A11
100
AcDbScale
 70
     0
300
2:1
140
2.0
141
1.0
290
     0
  0
SCALE
  5
1DC9D
102
{ACAD_REACTORS
330
A11
102
}
330
A11
100
AcDbScale
 70
     0
300
4:1
140
4.0
141
1.0
290
     0
  0
SCALE
  5
1DC9E
102
{ACAD_REACTORS
330
A11
102
}
330
A11
100
AcDbScale
 70
     0
300
8:1
140
8.0
141
1.0
290
     0
  0
SCALE
  5
1DC9F
102
{ACAD_REACTORS
330
A11
102
}
330
A11
100
AcDbScale
 70
     0
300
10:1
140
10.0
141
1.0
290
     0
  0
SCALE
  5
1DCA0
102
{ACAD_REACTORS
330
A11
102
}
330
A11
100
AcDbScale
 70
     0
300
100:1
140
100.0
141
1.0
290
     0
  0
SCALE
  5
1DCA1
102
{ACAD_REACTORS
330
A11
102
}
330
A11
100
AcDbScale
 70
     0
300
1/128" = 1'-0"
140
0.0078125
141
12.0
290
     0
  0
SCALE
  5
1DCA2
102
{ACAD_REACTORS
330
A11
102
}
330
A11
100
AcDbScale
 70
     0
300
1/64" = 1'-0"
140
0.015625
141
12.0
290
     0
  0
SCALE
  5
1DCA3
102
{ACAD_REACTORS
330
A11
102
}
330
A11
100
AcDbScale
 70
     0
300
1/32" = 1'-0"
140
0.03125
141
12.0
290
     0
  0
SCALE
  5
1DCA4
102
{ACAD_REACTORS
330
A11
102
}
330
A11
100
AcDbScale
 70
     0
300
1/16" = 1'-0"
140
0.0625
141
12.0
290
     0
  0
SCALE
  5
1DCA5
102
{ACAD_REACTORS
330
A11
102
}
330
A11
100
AcDbScale
 70
     0
300
3/32" = 1'-0"
140
0.09375
141
12.0
290
     0
  0
SCALE
  5
1DCA6
102
{ACAD_REACTORS
330
A11
102
}
330
A11
100
AcDbScale
 70
     0
300
1/8" = 1'-0"
140
0.125
141
12.0
290
     0
  0
SCALE
  5
1DCA7
102
{ACAD_REACTORS
330
A11
102
}
330
A11
100
AcDbScale
 70
     0
300
3/16" = 1'-0"
140
0.1875
141
12.0
290
     0
  0
SCALE
  5
1DCA8
102
{ACAD_REACTORS
330
A11
102
}
330
A11
100
AcDbScale
 70
     0
300
1/4" = 1'-0"
140
0.25
141
12.0
290
     0
  0
SCALE
  5
1DCA9
102
{ACAD_REACTORS
330
A11
102
}
330
A11
100
AcDbScale
 70
     0
300
3/8" = 1'-0"
140
0.375
141
12.0
290
     0
  0
SCALE
  5
1DCAA
102
{ACAD_REACTORS
330
A11
102
}
330
A11
100
AcDbScale
 70
     0
300
1/2" = 1'-0"
140
0.5
141
12.0
290
     0
  0
SCALE
  5
1DCAB
102
{ACAD_REACTORS
330
A11
102
}
330
A11
100
AcDbScale
 70
     0
300
3/4" = 1'-0"
140
0.75
141
12.0
290
     0
  0
SCALE
  5
1DCAC
102
{ACAD_REACTORS
330
A11
102
}
330
A11
100
AcDbScale
 70
     0
300
1" = 1'-0"
140
1.0
141
12.0
290
     0
  0
SCALE
  5
1DCAD
102
{ACAD_REACTORS
330
A11
102
}
330
A11
100
AcDbScale
 70
     0
300
1-1/2" = 1'-0"
140
1.5
141
12.0
290
     0
  0
SCALE
  5
1DCAE
102
{ACAD_REACTORS
330
A11
102
}
330
A11
100
AcDbScale
 70
     0
300
3" = 1'-0"
140
3.0
141
12.0
290
     0
  0
SCALE
  5
1DCAF
102
{ACAD_REACTORS
330
A11
102
}
330
A11
100
AcDbScale
 70
     0
300
6" = 1'-0"
140
6.0
141
12.0
290
     0
  0
SCALE
  5
1DCB0
102
{ACAD_REACTORS
330
A11
102
}
330
A11
100
AcDbScale
 70
     0
300
1'-0" = 1'-0"
140
12.0
141
12.0
290
     1
  0
ACDBSECTIONVIEWSTYLE
  5
5C43E
102
{ACAD_XDICTIONARY
360
A21DD
102
}
102
{ACAD_REACTORS
330
5C43D
102
}
330
5C43D
100
AcDbModelDocViewStyle
 70
     0
  3
Imperial24
290
     0
100
AcDbSectionViewStyle
 70
     0
 71
     0
 90
       78
 71
     1
340
11
 62
   256
 40
0.24
340
0
340
0
 62
   256
 40
0.24
300
I, O, Q, S, X, Z
 40
0.48
 90
        3
 40
0.18
 90
        1
 71
     2
340
16
 90
       25
 62
   256
340
16
 90
       50
 62
   256
 40
0.24
 40
0.0
 40
0.24
 71
     3
340
11
 62
   256
 40
0.24
 90
        1
 40
0.75
 90
        1
300
%<\AcVar ViewType \f "%tc1">% %<\AcVar ViewSectionStartId>%-%<\AcVar ViewSectionEndId>%\PSCALE %<\AcVar ViewScale \f "%sn">%
 71
     4
 62
   256
 62
   257
300
ANSI31
 40
1.0
 90
        0
290
     0
290
     0
 90
        6
 40
0.0
 40
1.570796326794896
 40
0.2617993877991494
 40
1.308996938995747
 40
-0.2617993877991494
 40
1.832595714594046
  0
TABLESTYLE
  5
87
102
{ACAD_XDICTIONARY
360
B4E
102
}
102
{ACAD_REACTORS
330
86
102
}
330
86
100
AcDbTableStyle
280
     0
  3
Standard
 70
     0
 71
     0
 40
0.06
 41
0.06
280
     0
281
     0
  7
Standard
140
0.18
170
     2
 62
     0
 63
     7
283
     0
 90
      512
 91
        0
  1

274
    -2
284
     1
 64
     0
275
    -2
285
     1
 65
     0
276
    -2
286
     1
 66
     0
277
    -2
287
     1
 67
     0
278
    -2
288
     1
 68
     0
279
    -2
289
     1
 69
     0
  7
Standard
140
0.25
170
     5
 62
     0
 63
     7
283
     0
 90
      512
 91
        0
  1

274
    -2
284
     1
 64
     0
275
    -2
285
     1
 65
     0
276
    -2
286
     1
 66
     0
277
    -2
287
     1
 67
     0
278
    -2
288
     1
 68
     0
279
    -2
289
     1
 69
     0
  7
Standard
140
0.18
170
     5
 62
     0
 63
     7
283
     0
 90
      512
 91
        0
  1

274
    -2
284
     1
 64
     0
275
    -2
285
     1
 65
     0
276
    -2
286
     1
 66
     0
277
    -2
287
     1
 67
     0
278
    -2
288
     1
 68
     0
279
    -2
289
     1
 69
     0
  0
VISUALSTYLE
  5
9F
102
{ACAD_REACTORS
330
99
102
}
330
99
100
AcDbVisualStyle
  2
2dWireframe
 70
     4
177
     3
291
     0
 70
    58
 90
        0
176
     1
 90
        2
176
     1
 90
        1
176
     1
 90
        0
176
     1
 40
0.6
176
     1
 40
30.0
176
     1
 62
     7
420
 16777215
176
     1
 90
        1
176
     1
 90
        4
176
     1
 62
     7
176
     1
 62
   257
176
     1
 90
        1
176
     1
 90
        1
176
     1
 40
1.0
176
     1
 90
        0
176
     1
 62
   257
176
     1
 40
1.0
176
     1
 90
        1
176
     1
 90
        6
176
     1
 90
        2
176
     1
 62
     7
176
     1
 90
        5
176
     1
 90
        0
176
     1
 90
        0
176
     1
290
     0
176
     1
 90
        1
176
     1
 40
0.0
176
     1
 90
        0
176
     1
290
     1
176
     1
290
     1
176
     1
290
     0
176
     1
290
     0
176
     1
290
     0
176
     1
290
     0
176
     1
290
     0
176
     1
290
     0
176
     1
290
     0
176
     1
 90
       50
176
     1
 40
0.0
176
     1
 40
1.0
176
     1
 90
        0
176
     1
 62
    18
420
        0
176
     1
 90
       50
176
     1
 90
        3
176
     1
 62
     5
420
      255
176
     1
290
     0
176
     1
 90
       50
176
     1
 90
       50
176
     1
 90
       50
176
     1
290
     0
176
     1
 90
       50
176
     1
 62
   256
176
     0
 40
1.0
176
     0
 90
        2
176
     1
  1
strokes_ogs.tif
176
     1
290
     0
176
     1
 40
1.0
176
     1
 40
1.0
176
     1
  0
VISUALSTYLE
  5
A1
102
{ACAD_REACTORS
330
99
102
}
330
99
100
AcDbVisualStyle
  2
3D Hidden
 70
     6
177
     3
291
     0
 70
    58
 90
        1
176
     1
 90
        2
176
     1
 90
        2
176
     1
 90
        0
176
     1
 40
0.6
176
     1
 40
30.0
176
     1
 62
     7
420
 16777215
176
     1
 90
        2
176
     1
 90
        2
176
     1
 62
     7
176
     1
 62
   257
176
     1
 90
        2
176
     1
 90
        1
176
     1
 40
40.0
176
     1
 90
        0
176
     1
 62
   257
176
     1
 40
1.0
176
     1
 90
        1
176
     1
 90
        6
176
     1
 90
        2
176
     1
 62
     7
176
     1
 90
        3
176
     1
 90
        0
176
     1
 90
        0
176
     1
290
     0
176
     1
 90
        1
176
     1
 40
0.0
176
     1
 90
        0
176
     1
290
     0
176
     1
290
     1
176
     1
290
     1
176
     1
290
     0
176
     1
290
     0
176
     1
290
     0
176
     1
290
     0
176
     1
290
     0
176
     1
290
     0
176
     1
 90
       50
176
     1
 40
0.0
176
     1
 40
1.0
176
     1
 90
        0
176
     1
 62
    18
420
        0
176
     1
 90
       50
176
     1
 90
        3
176
     1
 62
     5
420
      255
176
     1
290
     0
176
     1
 90
       50
176
     1
 90
       50
176
     1
 90
       50
176
     1
290
     0
176
     1
 90
       50
176
     1
 62
   256
176
     0
 40
1.0
176
     0
 90
        2
176
     1
  1
strokes_ogs.tif
176
     1
290
     0
176
     1
 40
1.0
176
     1
 40
1.0
176
     1
  0
VISUALSTYLE
  5
A0
102
{ACAD_REACTORS
330
99
102
}
330
99
100
AcDbVisualStyle
  2
3dWireframe
 70
     5
177
     3
291
     0
 70
    58
 90
        0
176
     1
 90
        2
176
     1
 90
        1
176
     1
 90
        0
176
     1
 40
0.6
176
     1
 40
30.0
176
     1
 62
     7
420
 16777215
176
     1
 90
        1
176
     1
 90
        4
176
     1
 62
     7
176
     1
 62
   257
176
     1
 90
        1
176
     1
 90
        1
176
     1
 40
1.0
176
     1
 90
        0
176
     1
 62
   257
176
     1
 40
1.0
176
     1
 90
        1
176
     1
 90
        6
176
     1
 90
        2
176
     1
 62
     7
176
     1
 90
        5
176
     1
 90
        0
176
     1
 90
        0
176
     1
290
     0
176
     1
 90
        1
176
     1
 40
0.0
176
     1
 90
        0
176
     1
290
     0
176
     1
290
     1
176
     1
290
     1
176
     1
290
     0
176
     1
290
     0
176
     1
290
     0
176
     1
290
     0
176
     1
290
     0
176
     1
290
     0
176
     1
 90
       50
176
     1
 40
0.0
176
     1
 40
1.0
176
     1
 90
        0
176
     1
 62
    18
420
        0
176
     1
 90
       50
176
     1
 90
        3
176
     1
 62
     5
420
      255
176
     1
290
     0
176
     1
 90
       50
176
     1
 90
       50
176
     1
 90
       50
176
     1
290
     0
176
     1
 90
       50
176
     1
 62
   256
176
     0
 40
1.0
176
     0
 90
        2
176
     1
  1
strokes_ogs.tif
176
     1
290
     0
176
     1
 40
1.0
176
     1
 40
1.0
176
     1
  0
VISUALSTYLE
  5
9E
102
{ACAD_REACTORS
330
99
102
}
330
99
100
AcDbVisualStyle
  2
Basic
 70
     7
177
     3
291
     1
 70
    58
 90
        1
176
     1
 90
        0
176
     1
 90
        1
176
     1
 90
        0
176
     1
 40
0.6
176
     1
 40
30.0
176
     1
 62
     7
420
 16777215
176
     1
 90
        0
176
     1
 90
        4
176
     1
 62
     7
176
     1
 62
   257
176
     1
 90
        1
176
     1
 90
        1
176
     1
 40
1.0
176
     1
 90
        8
176
     1
 62
     7
176
     1
 40
1.0
176
     1
 90
        1
176
     1
 90
        6
176
     1
 90
        2
176
     1
 62
     7
176
     1
 90
        5
176
     1
 90
        0
176
     1
 90
        0
176
     1
290
     0
176
     1
 90
        1
176
     1
 40
0.0
176
     1
 90
        0
176
     1
290
     0
176
     1
290
     1
176
     1
290
     1
176
     1
290
     0
176
     1
290
     0
176
     1
290
     0
176
     1
290
     0
176
     1
290
     0
176
     1
290
     0
176
     1
 90
       50
176
     1
 40
0.0
176
     1
 40
1.0
176
     1
 90
        0
176
     1
 62
    18
420
        0
176
     1
 90
       50
176
     1
 90
        3
176
     1
 62
     5
420
      255
176
     1
290
     0
176
     1
 90
       50
176
     1
 90
       50
176
     1
 90
       50
176
     1
290
     0
176
     1
 90
       50
176
     1
 62
   256
176
     0
 40
1.0
176
     0
 90
        2
176
     1
  1
strokes_ogs.tif
176
     1
290
     0
176
     1
 40
1.0
176
     1
 40
1.0
176
     1
  0
VISUALSTYLE
  5
A5
102
{ACAD_REACTORS
330
99
102
}
330
99
100
AcDbVisualStyle
  2
Brighten
 70
    12
177
     3
291
     1
 70
    58
 90
        2
176
     1
 90
        2
176
     1
 90
        1
176
     1
 90
        0
176
     1
 40
0.6
176
     1
 40
30.0
176
     1
 62
     7
420
 16777215
176
     1
 90
        1
176
     1
 90
        4
176
     1
 62
     7
176
     1
 62
   257
176
     1
 90
        1
176
     1
 90
        1
176
     1
 40
1.0
176
     1
 90
        8
176
     1
 62
     7
176
     1
 40
1.0
176
     1
 90
        1
176
     1
 90
        6
176
     1
 90
        2
176
     1
 62
     7
176
     1
 90
        5
176
     1
 90
        0
176
     1
 90
        0
176
     1
290
     0
176
     1
 90
        1
176
     1
 40
50.0
176
     1
 90
        0
176
     1
290
     0
176
     1
290
     1
176
     1
290
     1
176
     1
290
     0
176
     1
290
     0
176
     1
290
     0
176
     1
290
     0
176
     1
290
     0
176
     1
290
     0
176
     1
 90
       50
176
     1
 40
0.0
176
     1
 40
1.0
176
     1
 90
        0
176
     1
 62
    18
420
        0
176
     1
 90
       50
176
     1
 90
        3
176
     1
 62
     5
420
      255
176
     1
290
     0
176
     1
 90
       50
176
     1
 90
       50
176
     1
 90
       50
176
     1
290
     0
176
     1
 90
       50
176
     1
 62
   256
176
     0
 40
1.0
176
     0
 90
        2
176
     1
  1
strokes_ogs.tif
176
     1
290
     0
176
     1
 40
1.0
176
     1
 40
1.0
176
     1
  0
VISUALSTYLE
  5
A9
102
{ACAD_REACTORS
330
99
102
}
330
99
100
AcDbVisualStyle
  2
ColorChange
 70
    16
177
     3
291
     1
 70
    58
 90
        2
176
     1
 90
        2
176
     1
 90
        3
176
     1
 90
        0
176
     1
 40
0.6
176
     1
 40
30.0
176
     1
 62
     8
420
  8421504
176
     1
 90
        1
176
     1
 90
        4
176
     1
 62
     7
176
     1
 62
   257
176
     1
 90
        1
176
     1
 90
        1
176
     1
 40
1.0
176
     1
 90
        8
176
     1
 62
     8
420
  8421504
176
     1
 40
1.0
176
     1
 90
        1
176
     1
 90
        6
176
     1
 90
        2
176
     1
 62
     7
176
     1
 90
        5
176
     1
 90
        0
176
     1
 90
        0
176
     1
290
     0
176
     1
 90
        1
176
     1
 40
0.0
176
     1
 90
        0
176
     1
290
     0
176
     1
290
     1
176
     1
290
     1
176
     1
290
     0
176
     1
290
     0
176
     1
290
     0
176
     1
290
     0
176
     1
290
     0
176
     1
290
     0
176
     1
 90
       50
176
     1
 40
0.0
176
     1
 40
1.0
176
     1
 90
        0
176
     1
 62
    18
420
        0
176
     1
 90
       50
176
     1
 90
        3
176
     1
 62
     5
420
      255
176
     1
290
     0
176
     1
 90
       50
176
     1
 90
       50
176
     1
 90
       50
176
     1
290
     0
176
     1
 90
       50
176
     1
 62
   256
176
     0
 40
1.0
176
     0
 90
        2
176
     1
  1
strokes_ogs.tif
176
     1
290
     0
176
     1
 40
1.0
176
     1
 40
1.0
176
     1
  0
VISUALSTYLE
  5
A2
102
{ACAD_REACTORS
330
99
102
}
330
99
100
AcDbVisualStyle
  2
Conceptual
 70
     9
177
     3
291
     0
 70
    58
 90
        3
176
     1
 90
        2
176
     1
 90
        1
176
     1
 90
        0
176
     1
 40
0.6
176
     1
 40
30.0
176
     1
 62
     7
420
 16777215
176
     1
 90
        2
176
     1
 90
        2
176
     1
 62
     7
176
     1
 62
   257
176
     1
 90
        1
176
     1
 90
        1
176
     1
 40
40.0
176
     1
 90
        8
176
     1
 62
     7
176
     1
 40
1.0
176
     1
 90
        1
176
     1
 90
        6
176
     1
 90
        2
176
     1
 62
     7
176
     1
 90
        3
176
     1
 90
        0
176
     1
 90
        0
176
     1
290
     0
176
     1
 90
        1
176
     1
 40
0.0
176
     1
 90
        0
176
     1
290
     0
176
     1
290
     1
176
     1
290
     1
176
     1
290
     0
176
     1
290
     0
176
     1
290
     0
176
     1
290
     0
176
     1
290
     0
176
     1
290
     0
176
     1
 90
       50
176
     1
 40
0.0
176
     1
 40
1.0
176
     1
 90
        0
176
     1
 62
    18
420
        0
176
     1
 90
       50
176
     1
 90
        3
176
     1
 62
     5
420
      255
176
     1
290
     0
176
     1
 90
       50
176
     1
 90
       50
176
     1
 90
       50
176
     1
290
     0
176
     1
 90
       50
176
     1
 62
   256
176
     0
 40
1.0
176
     0
 90
        2
176
     1
  1
strokes_ogs.tif
176
     1
290
     0
176
     1
 40
1.0
176
     1
 40
1.0
176
     1
  0
VISUALSTYLE
  5
A4
102
{ACAD_REACTORS
330
99
102
}
330
99
100
AcDbVisualStyle
  2
Dim
 70
    11
177
     3
291
     1
 70
    58
 90
        2
176
     1
 90
        2
176
     1
 90
        1
176
     1
 90
        0
176
     1
 40
0.6
176
     1
 40
30.0
176
     1
 62
     7
420
 16777215
176
     1
 90
        1
176
     1
 90
        4
176
     1
 62
     7
176
     1
 62
   257
176
     1
 90
        1
176
     1
 90
        1
176
     1
 40
1.0
176
     1
 90
        8
176
     1
 62
     7
176
     1
 40
1.0
176
     1
 90
        1
176
     1
 90
        6
176
     1
 90
        2
176
     1
 62
     7
176
     1
 90
        5
176
     1
 90
        0
176
     1
 90
        0
176
     1
290
     0
176
     1
 90
        1
176
     1
 40
-50.0
176
     1
 90
        0
176
     1
290
     0
176
     1
290
     1
176
     1
290
     1
176
     1
290
     0
176
     1
290
     0
176
     1
290
     0
176
     1
290
     0
176
     1
290
     0
176
     1
290
     0
176
     1
 90
       50
176
     1
 40
0.0
176
     1
 40
1.0
176
     1
 90
        0
176
     1
 62
    18
420
        0
176
     1
 90
       50
176
     1
 90
        3
176
     1
 62
     5
420
      255
176
     1
290
     0
176
     1
 90
       50
176
     1
 90
       50
176
     1
 90
       50
176
     1
290
     0
176
     1
 90
       50
176
     1
 62
   256
176
     0
 40
1.0
176
     0
 90
        2
176
     1
  1
strokes_ogs.tif
176
     1
290
     0
176
     1
 40
1.0
176
     1
 40
1.0
176
     1
  0
VISUALSTYLE
  5
5C43C
102
{ACAD_REACTORS
330
99
102
}
330
99
100
AcDbVisualStyle
  2
EdgeColorOff
 70
    22
177
     3
291
     1
 70
    58
 90
        2
176
     0
 90
        2
176
     0
 90
        0
176
     0
 90
        0
176
     0
 40
0.6
176
     0
 40
30.0
176
     0
 62
     7
420
 16777215
176
     0
 90
        1
176
     0
 90
        4
176
     0
 62
     7
176
     0
 62
   257
176
     0
 90
        1
176
     0
 90
        1
176
     0
 40
1.0
176
     0
 90
        8
176
     2
 62
     7
176
     0
 40
1.0
176
     0
 90
        1
176
     0
 90
        6
176
     0
 90
        2
176
     0
 62
     7
176
     0
 90
        5
176
     0
 90
        0
176
     0
 90
        0
176
     0
290
     0
176
     0
 90
        1
176
     0
 40
0.0
176
     0
 90
        0
176
     0
290
     0
176
     0
290
     1
176
     0
290
     1
176
     0
290
     0
176
     0
290
     0
176
     0
290
     0
176
     0
290
     0
176
     0
290
     0
176
     0
290
     0
176
     0
 90
       50
176
     0
 40
0.0
176
     0
 40
1.0
176
     0
 90
        0
176
     0
 62
    18
420
        0
176
     0
 90
       50
176
     0
 90
        3
176
     0
 62
     5
420
      255
176
     0
290
     0
176
     0
 90
       50
176
     0
 90
       50
176
     0
 90
       50
176
     0
290
     0
176
     0
 90
       50
176
     0
 62
   256
176
     0
 40
1.0
176
     0
 90
        2
176
     0
  1
strokes_ogs.tif
176
     0
290
     0
176
     0
 40
1.0
176
     0
 40
1.0
176
     0
  0
VISUALSTYLE
  5
A8
102
{ACAD_REACTORS
330
99
102
}
330
99
100
AcDbVisualStyle
  2
Facepattern
 70
    15
177
     3
291
     1
 70
    58
 90
        2
176
     1
 90
        2
176
     1
 90
        1
176
     1
 90
        0
176
     1
 40
0.6
176
     1
 40
30.0
176
     1
 62
     7
420
 16777215
176
     1
 90
        1
176
     1
 90
        4
176
     1
 62
     7
176
     1
 62
   257
176
     1
 90
        1
176
     1
 90
        1
176
     1
 40
1.0
176
     1
 90
        8
176
     1
 62
     7
176
     1
 40
1.0
176
     1
 90
        1
176
     1
 90
        6
176
     1
 90
        2
176
     1
 62
     7
176
     1
 90
        5
176
     1
 90
        0
176
     1
 90
        0
176
     1
290
     0
176
     1
 90
        1
176
     1
 40
0.0
176
     1
 90
        0
176
     1
290
     0
176
     1
290
     1
176
     1
290
     1
176
     1
290
     0
176
     1
290
     0
176
     1
290
     0
176
     1
290
     0
176
     1
290
     0
176
     1
290
     0
176
     1
 90
       50
176
     1
 40
0.0
176
     1
 40
1.0
176
     1
 90
        0
176
     1
 62
    18
420
        0
176
     1
 90
       50
176
     1
 90
        3
176
     1
 62
     5
420
      255
176
     1
290
     0
176
     1
 90
       50
176
     1
 90
       50
176
     1
 90
       50
176
     1
290
     0
176
     1
 90
       50
176
     1
 62
   256
176
     0
 40
1.0
176
     0
 90
        2
176
     1
  1
strokes_ogs.tif
176
     1
290
     0
176
     1
 40
1.0
176
     1
 40
1.0
176
     1
  0
VISUALSTYLE
  5
9A
102
{ACAD_REACTORS
330
99
102
}
330
99
100
AcDbVisualStyle
  2
Flat
 70
     0
177
     3
291
     1
 70
    58
 90
        2
176
     1
 90
        1
176
     1
 90
        1
176
     1
 90
        2
176
     1
 40
0.6
176
     1
 40
30.0
176
     1
 62
     7
420
 16777215
176
     1
 90
        0
176
     1
 90
        4
176
     1
 62
     7
176
     1
 62
   257
176
     1
 90
        1
176
     1
 90
        1
176
     1
 40
1.0
176
     1
 90
        8
176
     1
 62
     7
176
     1
 40
1.0
176
     1
 90
        1
176
     1
 90
        6
176
     1
 90
        2
176
     1
 62
     7
176
     1
 90
        5
176
     1
 90
        0
176
     1
 90
        0
176
     1
290
     0
176
     1
 90
        1
176
     1
 40
0.0
176
     1
 90
        0
176
     1
290
     0
176
     1
290
     1
176
     1
290
     1
176
     1
290
     0
176
     1
290
     0
176
     1
290
     0
176
     1
290
     0
176
     1
290
     0
176
     1
290
     0
176
     1
 90
       50
176
     1
 40
0.0
176
     1
 40
1.0
176
     1
 90
        0
176
     1
 62
    18
420
        0
176
     1
 90
       50
176
     1
 90
        3
176
     1
 62
     5
420
      255
176
     1
290
     0
176
     1
 90
       50
176
     1
 90
       50
176
     1
 90
       50
176
     1
290
     0
176
     1
 90
       50
176
     1
 62
   256
176
     0
 40
1.0
176
     0
 90
        2
176
     1
  1
strokes_ogs.tif
176
     1
290
     0
176
     1
 40
1.0
176
     1
 40
1.0
176
     1
  0
VISUALSTYLE
  5
9B
102
{ACAD_REACTORS
330
99
102
}
330
99
100
AcDbVisualStyle
  2
FlatWithEdges
 70
     1
177
     3
291
     1
 70
    58
 90
        2
176
     1
 90
        1
176
     1
 90
        1
176
     1
 90
        2
176
     1
 40
0.6
176
     1
 40
30.0
176
     1
 62
     7
420
 16777215
176
     1
 90
        1
176
     1
 90
        4
176
     1
 62
     7
176
     1
 62
   257
176
     1
 90
        1
176
     1
 90
        1
176
     1
 40
1.0
176
     1
 90
        0
176
     1
 62
   257
176
     1
 40
1.0
176
     1
 90
        1
176
     1
 90
        6
176
     1
 90
        2
176
     1
 62
     7
176
     1
 90
        5
176
     1
 90
        0
176
     1
 90
        0
176
     1
290
     0
176
     1
 90
        1
176
     1
 40
0.0
176
     1
 90
        0
176
     1
290
     0
176
     1
290
     1
176
     1
290
     1
176
     1
290
     0
176
     1
290
     0
176
     1
290
     0
176
     1
290
     0
176
     1
290
     0
176
     1
290
     0
176
     1
 90
       50
176
     1
 40
0.0
176
     1
 40
1.0
176
     1
 90
        0
176
     1
 62
    18
420
        0
176
     1
 90
       50
176
     1
 90
        3
176
     1
 62
     5
420
      255
176
     1
290
     0
176
     1
 90
       50
176
     1
 90
       50
176
     1
 90
       50
176
     1
290
     0
176
     1
 90
       50
176
     1
 62
   256
176
     0
 40
1.0
176
     0
 90
        2
176
     1
  1
strokes_ogs.tif
176
     1
290
     0
176
     1
 40
1.0
176
     1
 40
1.0
176
     1
  0
VISUALSTYLE
  5
9C
102
{ACAD_REACTORS
330
99
102
}
330
99
100
AcDbVisualStyle
  2
Gouraud
 70
     2
177
     3
291
     1
 70
    58
 90
        2
176
     1
 90
        2
176
     1
 90
        1
176
     1
 90
        2
176
     1
 40
0.6
176
     1
 40
30.0
176
     1
 62
     7
420
 16777215
176
     1
 90
        0
176
     1
 90
        4
176
     1
 62
     7
176
     1
 62
   257
176
     1
 90
        1
176
     1
 90
        1
176
     1
 40
1.0
176
     1
 90
        0
176
     1
 62
     7
176
     1
 40
1.0
176
     1
 90
        1
176
     1
 90
        6
176
     1
 90
        2
176
     1
 62
     7
176
     1
 90
        5
176
     1
 90
        0
176
     1
 90
        0
176
     1
290
     0
176
     1
 90
        1
176
     1
 40
0.0
176
     1
 90
        0
176
     1
290
     0
176
     1
290
     1
176
     1
290
     1
176
     1
290
     0
176
     1
290
     0
176
     1
290
     0
176
     1
290
     0
176
     1
290
     0
176
     1
290
     0
176
     1
 90
       50
176
     1
 40
0.0
176
     1
 40
1.0
176
     1
 90
        0
176
     1
 62
    18
420
        0
176
     1
 90
       50
176
     1
 90
        3
176
     1
 62
     5
420
      255
176
     1
290
     0
176
     1
 90
       50
176
     1
 90
       50
176
     1
 90
       50
176
     1
290
     0
176
     1
 90
       50
176
     1
 62
   256
176
     0
 40
1.0
176
     0
 90
        2
176
     1
  1
strokes_ogs.tif
176
     1
290
     0
176
     1
 40
1.0
176
     1
 40
1.0
176
     1
  0
VISUALSTYLE
  5
9D
102
{ACAD_REACTORS
330
99
102
}
330
99
100
AcDbVisualStyle
  2
GouraudWithEdges
 70
     3
177
     3
291
     1
 70
    58
 90
        2
176
     1
 90
        2
176
     1
 90
        1
176
     1
 90
        2
176
     1
 40
0.6
176
     1
 40
30.0
176
     1
 62
     7
420
 16777215
176
     1
 90
        1
176
     1
 90
        4
176
     1
 62
     7
176
     1
 62
   257
176
     1
 90
        1
176
     1
 90
        1
176
     1
 40
1.0
176
     1
 90
        0
176
     1
 62
   257
176
     1
 40
1.0
176
     1
 90
        1
176
     1
 90
        6
176
     1
 90
        2
176
     1
 62
     7
176
     1
 90
        5
176
     1
 90
        0
176
     1
 90
        0
176
     1
290
     0
176
     1
 90
        1
176
     1
 40
0.0
176
     1
 90
        0
176
     1
290
     0
176
     1
290
     1
176
     1
290
     1
176
     1
290
     0
176
     1
290
     0
176
     1
290
     0
176
     1
290
     0
176
     1
290
     0
176
     1
290
     0
176
     1
 90
       50
176
     1
 40
0.0
176
     1
 40
1.0
176
     1
 90
        0
176
     1
 62
    18
420
        0
176
     1
 90
       50
176
     1
 90
        3
176
     1
 62
     5
420
      255
176
     1
290
     0
176
     1
 90
       50
176
     1
 90
       50
176
     1
 90
       50
176
     1
290
     0
176
     1
 90
       50
176
     1
 62
   256
176
     0
 40
1.0
176
     0
 90
        2
176
     1
  1
strokes_ogs.tif
176
     1
290
     0
176
     1
 40
1.0
176
     1
 40
1.0
176
     1
  0
VISUALSTYLE
  5
5C434
102
{ACAD_REACTORS
330
99
102
}
330
99
100
AcDbVisualStyle
  2
Hidden
 70
     6
177
     3
291
     0
 70
    58
 90
        1
176
     1
 90
        2
176
     1
 90
        2
176
     1
 90
        0
176
     1
 40
0.6
176
     1
 40
30.0
176
     1
 62
     7
420
 16777215
176
     1
 90
        2
176
     1
 90
        2
176
     1
 62
     7
176
     1
 62
   257
176
     1
 90
        2
176
     1
 90
        1
176
     1
 40
40.0
176
     1
 90
        0
176
     1
 62
   257
176
     1
 40
1.0
176
     1
 90
        1
176
     1
 90
        6
176
     1
 90
        2
176
     1
 62
     7
176
     1
 90
        3
176
     1
 90
        0
176
     1
 90
        0
176
     1
290
     0
176
     1
 90
        1
176
     1
 40
0.0
176
     1
 90
        0
176
     1
290
     0
176
     1
290
     1
176
     1
290
     1
176
     1
290
     0
176
     1
290
     0
176
     1
290
     0
176
     1
290
     0
176
     1
290
     0
176
     1
290
     0
176
     1
 90
       50
176
     1
 40
0.0
176
     1
 40
1.0
176
     1
 90
        0
176
     1
 62
    18
420
        0
176
     1
 90
       50
176
     1
 90
        3
176
     1
 62
     5
420
      255
176
     1
290
     0
176
     1
 90
       50
176
     1
 90
       50
176
     1
 90
       50
176
     1
290
     0
176
     1
 90
       50
176
     1
 62
   256
176
     0
 40
1.0
176
     0
 90
        2
176
     1
  1
strokes_ogs.tif
176
     1
290
     0
176
     1
 40
1.0
176
     1
 40
1.0
176
     1
  0
VISUALSTYLE
  5
5C43A
102
{ACAD_REACTORS
330
99
102
}
330
99
100
AcDbVisualStyle
  2
JitterOff
 70
    20
177
     3
291
     1
 70
    58
 90
        2
176
     0
 90
        2
176
     0
 90
        0
176
     0
 90
        0
176
     0
 40
0.6
176
     0
 40
30.0
176
     0
 62
     7
420
 16777215
176
     0
 90
        1
176
     0
 90
        4
176
     0
 62
     7
176
     0
 62
   257
176
     0
 90
        1
176
     0
 90
        1
176
     0
 40
1.0
176
     0
 90
       10
176
     2
 62
     7
176
     0
 40
1.0
176
     0
 90
        1
176
     0
 90
        6
176
     0
 90
        2
176
     0
 62
     7
176
     0
 90
        5
176
     0
 90
        0
176
     0
 90
        0
176
     0
290
     0
176
     0
 90
        1
176
     0
 40
0.0
176
     0
 90
        0
176
     0
290
     0
176
     0
290
     1
176
     0
290
     1
176
     0
290
     0
176
     0
290
     0
176
     0
290
     0
176
     0
290
     0
176
     0
290
     0
176
     0
290
     0
176
     0
 90
       50
176
     0
 40
0.0
176
     0
 40
1.0
176
     0
 90
        0
176
     0
 62
    18
420
        0
176
     0
 90
       50
176
     0
 90
        3
176
     0
 62
     5
420
      255
176
     0
290
     0
176
     0
 90
       50
176
     0
 90
       50
176
     0
 90
       50
176
     0
290
     0
176
     0
 90
       50
176
     0
 62
   256
176
     0
 40
1.0
176
     0
 90
        2
176
     0
  1
strokes_ogs.tif
176
     0
290
     0
176
     0
 40
1.0
176
     0
 40
1.0
176
     0
  0
VISUALSTYLE
  5
A7
102
{ACAD_REACTORS
330
99
102
}
330
99
100
AcDbVisualStyle
  2
Linepattern
 70
    14
177
     3
291
     1
 70
    58
 90
        2
176
     1
 90
        2
176
     1
 90
        1
176
     1
 90
        0
176
     1
 40
0.6
176
     1
 40
30.0
176
     1
 62
     7
420
 16777215
176
     1
 90
        1
176
     1
 90
        4
176
     1
 62
     7
176
     1
 62
   257
176
     1
 90
        7
176
     1
 90
        7
176
     1
 40
1.0
176
     1
 90
        8
176
     1
 62
     7
176
     1
 40
1.0
176
     1
 90
        1
176
     1
 90
        6
176
     1
 90
        2
176
     1
 62
     7
176
     1
 90
        5
176
     1
 90
        0
176
     1
 90
        0
176
     1
290
     0
176
     1
 90
        1
176
     1
 40
0.0
176
     1
 90
        0
176
     1
290
     0
176
     1
290
     1
176
     1
290
     1
176
     1
290
     0
176
     1
290
     0
176
     1
290
     0
176
     1
290
     0
176
     1
290
     0
176
     1
290
     0
176
     1
 90
       50
176
     1
 40
0.0
176
     1
 40
1.0
176
     1
 90
        0
176
     1
 62
    18
420
        0
176
     1
 90
       50
176
     1
 90
        3
176
     1
 62
     5
420
      255
176
     1
290
     0
176
     1
 90
       50
176
     1
 90
       50
176
     1
 90
       50
176
     1
290
     0
176
     1
 90
       50
176
     1
 62
   256
176
     0
 40
1.0
176
     0
 90
        2
176
     1
  1
strokes_ogs.tif
176
     1
290
     0
176
     1
 40
1.0
176
     1
 40
1.0
176
     1
  0
VISUALSTYLE
  5
5C43B
102
{ACAD_REACTORS
330
99
102
}
330
99
100
AcDbVisualStyle
  2
OverhangOff
 70
    21
177
     3
291
     1
 70
    58
 90
        2
176
     0
 90
        2
176
     0
 90
        0
176
     0
 90
        0
176
     0
 40
0.6
176
     0
 40
30.0
176
     0
 62
     7
420
 16777215
176
     0
 90
        1
176
     0
 90
        4
176
     0
 62
     7
176
     0
 62
   257
176
     0
 90
        1
176
     0
 90
        1
176
     0
 40
1.0
176
     0
 90
        9
176
     2
 62
     7
176
     0
 40
1.0
176
     0
 90
        1
176
     0
 90
        6
176
     0
 90
        2
176
     0
 62
     7
176
     0
 90
        5
176
     0
 90
        0
176
     0
 90
        0
176
     0
290
     0
176
     0
 90
        1
176
     0
 40
0.0
176
     0
 90
        0
176
     0
290
     0
176
     0
290
     1
176
     0
290
     1
176
     0
290
     0
176
     0
290
     0
176
     0
290
     0
176
     0
290
     0
176
     0
290
     0
176
     0
290
     0
176
     0
 90
       50
176
     0
 40
0.0
176
     0
 40
1.0
176
     0
 90
        0
176
     0
 62
    18
420
        0
176
     0
 90
       50
176
     0
 90
        3
176
     0
 62
     5
420
      255
176
     0
290
     0
176
     0
 90
       50
176
     0
 90
       50
176
     0
 90
       50
176
     0
290
     0
176
     0
 90
       50
176
     0
 62
   256
176
     0
 40
1.0
176
     0
 90
        2
176
     0
  1
strokes_ogs.tif
176
     0
290
     0
176
     0
 40
1.0
176
     0
 40
1.0
176
     0
  0
VISUALSTYLE
  5
A3
102
{ACAD_REACTORS
330
99
102
}
330
99
100
AcDbVisualStyle
  2
Realistic
 70
     8
177
     3
291
     0
 70
    58
 90
        2
176
     1
 90
        2
176
     1
 90
        1
176
     1
 90
        0
176
     1
 40
0.6
176
     1
 40
30.0
176
     1
 62
     7
420
 16777215
176
     1
 90
        1
176
     1
 90
        0
176
     1
 62
     7
176
     1
 62
   257
176
     1
 90
        1
176
     1
 90
        1
176
     1
 40
1.0
176
     1
 90
        8
176
     1
 62
     8
420
  7895160
176
     1
 40
1.0
176
     1
 90
        1
176
     1
 90
        6
176
     1
 90
        2
176
     1
 62
     7
176
     1
 90
        5
176
     1
 90
        0
176
     1
 90
        0
176
     1
290
     0
176
     1
 90
       13
176
     1
 40
0.0
176
     1
 90
        0
176
     1
290
     0
176
     1
290
     1
176
     1
290
     1
176
     1
290
     0
176
     1
290
     0
176
     1
290
     0
176
     1
290
     0
176
     1
290
     0
176
     1
290
     0
176
     1
 90
       50
176
     1
 40
0.0
176
     1
 40
1.0
176
     1
 90
        0
176
     1
 62
    18
420
        0
176
     1
 90
       50
176
     1
 90
        3
176
     1
 62
     5
420
      255
176
     1
290
     0
176
     1
 90
       50
176
     1
 90
       50
176
     1
 90
       50
176
     1
290
     0
176
     1
 90
       50
176
     1
 62
   256
176
     0
 40
1.0
176
     0
 90
        2
176
     1
  1
strokes_ogs.tif
176
     1
290
     0
176
     1
 40
1.0
176
     1
 40
1.0
176
     1
  0
VISUALSTYLE
  5
5C439
102
{ACAD_REACTORS
330
99
102
}
330
99
100
AcDbVisualStyle
  2
Shaded
 70
    27
177
     3
291
     0
 70
    58
 90
        2
176
     1
 90
        2
176
     1
 90
        1
176
     1
 90
        2
176
     1
 40
0.6
176
     1
 40
30.0
176
     1
 62
     7
420
 16777215
176
     1
 90
        0
176
     1
 90
        4
176
     1
 62
     7
176
     1
 62
   257
176
     1
 90
        1
176
     1
 90
        1
176
     1
 40
1.0
176
     1
 90
        8
176
     1
 62
   257
176
     1
 40
1.0
176
     1
 90
        1
176
     1
 90
        6
176
     1
 90
        2
176
     1
 62
     8
420
  7895160
176
     1
 90
        3
176
     1
 90
        0
176
     1
 90
        0
176
     1
290
     0
176
     1
 90
        5
176
     1
 40
0.0
176
     1
 90
        0
176
     1
290
     0
176
     1
290
     1
176
     1
290
     1
176
     1
290
     0
176
     1
290
     0
176
     1
290
     0
176
     1
290
     0
176
     1
290
     0
176
     1
290
     0
176
     1
 90
       50
176
     1
 40
0.0
176
     1
 40
1.0
176
     1
 90
        0
176
     1
 62
    18
420
        0
176
     1
 90
       50
176
     1
 90
        3
176
     1
 62
     5
420
      255
176
     1
290
     0
176
     1
 90
       50
176
     1
 90
       50
176
     1
 90
       50
176
     1
290
     0
176
     1
 90
       50
176
     1
 62
   256
176
     0
 40
1.0
176
     0
 90
        2
176
     1
  1
strokes_ogs.tif
176
     1
290
     0
176
     1
 40
1.0
176
     1
 40
1.0
176
     1
  0
VISUALSTYLE
  5
5C438
102
{ACAD_REACTORS
330
99
102
}
330
99
100
AcDbVisualStyle
  2
Shaded with edges
 70
    26
177
     3
291
     0
 70
    58
 90
        2
176
     1
 90
        2
176
     1
 90
        1
176
     1
 90
        2
176
     1
 40
0.6
176
     1
 40
30.0
176
     1
 62
     7
420
 16777215
176
     1
 90
        1
176
     1
 90
       10
176
     1
 62
     7
176
     1
 62
   257
176
     1
 90
        2
176
     1
 90
        1
176
     1
 40
1.0
176
     1
 90
        8
176
     1
 62
   257
176
     1
 40
1.0
176
     1
 90
        1
176
     1
 90
        6
176
     1
 90
        2
176
     1
 62
     7
176
     1
 90
        3
176
     1
 90
        0
176
     1
 90
        0
176
     1
290
     0
176
     1
 90
        5
176
     1
 40
0.0
176
     1
 90
        0
176
     1
290
     0
176
     1
290
     1
176
     1
290
     1
176
     1
290
     0
176
     1
290
     0
176
     1
290
     0
176
     1
290
     0
176
     1
290
     0
176
     1
290
     0
176
     1
 90
       50
176
     1
 40
0.0
176
     1
 40
1.0
176
     1
 90
        0
176
     1
 62
    18
420
        0
176
     1
 90
       50
176
     1
 90
        3
176
     1
 62
     5
420
      255
176
     1
290
     0
176
     1
 90
       50
176
     1
 90
       50
176
     1
 90
       50
176
     1
290
     0
176
     1
 90
       50
176
     1
 62
   256
176
     0
 40
1.0
176
     0
 90
        2
176
     1
  1
strokes_ogs.tif
176
     1
290
     0
176
     1
 40
1.0
176
     1
 40
1.0
176
     1
  0
VISUALSTYLE
  5
5C435
102
{ACAD_REACTORS
330
99
102
}
330
99
100
AcDbVisualStyle
  2
Shades of Gray
 70
    23
177
     3
291
     0
 70
    58
 90
        2
176
     1
 90
        2
176
     1
 90
        3
176
     1
 90
        0
176
     1
 40
0.6
176
     1
 40
30.0
176
     1
 62
     7
420
 16777215
176
     1
 90
        2
176
     1
 90
        2
176
     1
 62
     7
176
     1
 62
     7
176
     1
 90
        1
176
     1
 90
        1
176
     1
 40
40.0
176
     1
 90
        8
176
     1
 62
     7
176
     1
 40
1.0
176
     1
 90
        1
176
     1
 90
        6
176
     1
 90
        2
176
     1
 62
     7
176
     1
 90
        3
176
     1
 90
        0
176
     1
 90
        0
176
     1
290
     0
176
     1
 90
        1
176
     1
 40
0.0
176
     1
 90
        0
176
     1
290
     0
176
     1
290
     1
176
     1
290
     1
176
     1
290
     0
176
     1
290
     0
176
     1
290
     0
176
     1
290
     0
176
     1
290
     0
176
     1
290
     0
176
     1
 90
       50
176
     1
 40
0.0
176
     1
 40
1.0
176
     1
 90
        0
176
     1
 62
    18
420
        0
176
     1
 90
       50
176
     1
 90
        3
176
     1
 62
     5
420
      255
176
     1
290
     0
176
     1
 90
       50
176
     1
 90
       50
176
     1
 90
       50
176
     1
290
     0
176
     1
 90
       50
176
     1
 62
   256
176
     0
 40
1.0
176
     0
 90
        2
176
     1
  1
strokes_ogs.tif
176
     1
290
     0
176
     1
 40
1.0
176
     1
 40
1.0
176
     1
  0
VISUALSTYLE
  5
5C436
102
{ACAD_REACTORS
330
99
102
}
330
99
100
AcDbVisualStyle
  2
Sketchy
 70
    24
177
     3
291
     0
 70
    58
 90
        1
176
     1
 90
        2
176
     1
 90
        2
176
     1
 90
        0
176
     1
 40
0.6
176
     1
 40
30.0
176
     1
 62
     7
420
 16777215
176
     1
 90
        2
176
     1
 90
        2
176
     1
 62
     7
176
     1
 62
     7
176
     1
 90
        1
176
     1
 90
        1
176
     1
 40
40.0
176
     1
 90
       11
176
     1
 62
     7
176
     1
 40
1.0
176
     1
 90
        1
176
     1
 90
        6
176
     1
 90
        2
176
     1
 62
     7
176
     1
 90
        6
176
     1
 90
        0
176
     1
 90
        0
176
     1
290
     0
176
     1
 90
        1
176
     1
 40
0.0
176
     1
 90
        0
176
     1
290
     0
176
     1
290
     1
176
     1
290
     1
176
     1
290
     0
176
     1
290
     0
176
     1
290
     0
176
     1
290
     0
176
     1
290
     0
176
     1
290
     0
176
     1
 90
       50
176
     1
 40
0.0
176
     1
 40
1.0
176
     1
 90
        0
176
     1
 62
    18
420
        0
176
     1
 90
       50
176
     1
 90
        3
176
     1
 62
     5
420
      255
176
     1
290
     0
176
     1
 90
       50
176
     1
 90
       50
176
     1
 90
       50
176
     1
290
     0
176
     1
 90
       50
176
     1
 62
   256
176
     0
 40
1.0
176
     0
 90
        2
176
     1
  1
strokes_ogs.tif
176
     1
290
     0
176
     1
 40
1.0
176
     1
 40
1.0
176
     1
  0
VISUALSTYLE
  5
A6
102
{ACAD_REACTORS
330
99
102
}
330
99
100
AcDbVisualStyle
  2
Thicken
 70
    13
177
     3
291
     1
 70
    58
 90
        2
176
     1
 90
        2
176
     1
 90
        1
176
     1
 90
        0
176
     1
 40
0.6
176
     1
 40
30.0
176
     1
 62
     7
420
 16777215
176
     1
 90
        1
176
     1
 90
        4
176
     1
 62
     7
176
     1
 62
   257
176
     1
 90
        1
176
     1
 90
        1
176
     1
 40
1.0
176
     1
 90
       12
176
     1
 62
     7
176
     1
 40
1.0
176
     1
 90
        1
176
     1
 90
        6
176
     1
 90
        2
176
     1
 62
     7
176
     1
 90
        5
176
     1
 90
        0
176
     1
 90
        0
176
     1
290
     0
176
     1
 90
        1
176
     1
 40
0.0
176
     1
 90
        0
176
     1
290
     0
176
     1
290
     1
176
     1
290
     1
176
     1
290
     0
176
     1
290
     0
176
     1
290
     0
176
     1
290
     0
176
     1
290
     0
176
     1
290
     0
176
     1
 90
       50
176
     1
 40
0.0
176
     1
 40
1.0
176
     1
 90
        0
176
     1
 62
    18
420
        0
176
     1
 90
       50
176
     1
 90
        3
176
     1
 62
     5
420
      255
176
     1
290
     0
176
     1
 90
       50
176
     1
 90
       50
176
     1
 90
       50
176
     1
290
     0
176
     1
 90
       50
176
     1
 62
   256
176
     0
 40
1.0
176
     0
 90
        2
176
     1
  1
strokes_ogs.tif
176
     1
290
     0
176
     1
 40
1.0
176
     1
 40
1.0
176
     1
  0
VISUALSTYLE
  5
5C433
102
{ACAD_REACTORS
330
99
102
}
330
99
100
AcDbVisualStyle
  2
Wireframe
 70
     5
177
     3
291
     0
 70
    58
 90
        0
176
     1
 90
        2
176
     1
 90
        0
176
     1
 90
        0
176
     1
 40
0.6
176
     1
 40
30.0
176
     1
 62
     7
420
 16777215
176
     1
 90
        1
176
     1
 90
        4
176
     1
 62
     7
176
     1
 62
   257
176
     1
 90
        1
176
     1
 90
        1
176
     1
 40
1.0
176
     1
 90
        0
176
     1
 62
   257
176
     1
 40
1.0
176
     1
 90
        1
176
     1
 90
        6
176
     1
 90
        2
176
     1
 62
     7
176
     1
 90
        3
176
     1
 90
        0
176
     1
 90
        0
176
     1
290
     0
176
     1
 90
        1
176
     1
 40
0.0
176
     1
 90
        0
176
     1
290
     0
176
     1
290
     1
176
     1
290
     1
176
     1
290
     0
176
     1
290
     0
176
     1
290
     0
176
     1
290
     0
176
     1
290
     0
176
     1
290
     0
176
     1
 90
       50
176
     1
 40
0.0
176
     1
 40
1.0
176
     1
 90
        0
176
     1
 62
    18
420
        0
176
     1
 90
       50
176
     1
 90
        3
176
     1
 62
     5
420
      255
176
     1
290
     0
176
     1
 90
       50
176
     1
 90
       50
176
     1
 90
       50
176
     1
290
     0
176
     1
 90
       50
176
     1
 62
   256
176
     0
 40
1.0
176
     0
 90
        2
176
     1
  1
strokes_ogs.tif
176
     1
290
     0
176
     1
 40
1.0
176
     1
 40
1.0
176
     1
  0
VISUALSTYLE
  5
5C437
102
{ACAD_REACTORS
330
99
102
}
330
99
100
AcDbVisualStyle
  2
X-Ray
 70
    25
177
     3
291
     0
 70
    58
 90
        2
176
     1
 90
        2
176
     1
 90
        1
176
     1
 90
        1
176
     1
 40
0.5
176
     1
 40
30.0
176
     1
 62
     7
420
 16777215
176
     1
 90
        1
176
     1
 90
        0
176
     1
 62
     7
176
     1
 62
   257
176
     1
 90
        1
176
     1
 90
        1
176
     1
 40
1.0
176
     1
 90
        8
176
     1
 62
     7
176
     1
 40
1.0
176
     1
 90
        1
176
     1
 90
        6
176
     1
 90
        2
176
     1
 62
     7
176
     1
 90
        3
176
     1
 90
        0
176
     1
 90
        0
176
     1
290
     0
176
     1
 90
       13
176
     1
 40
0.0
176
     1
 90
        0
176
     1
290
     0
176
     1
290
     1
176
     1
290
     1
176
     1
290
     0
176
     1
290
     0
176
     1
290
     0
176
     1
290
     0
176
     1
290
     0
176
     1
290
     0
176
     1
 90
       50
176
     1
 40
0.0
176
     1
 40
1.0
176
     1
 90
        0
176
     1
 62
    18
420
        0
176
     1
 90
       50
176
     1
 90
        3
176
     1
 62
     5
420
      255
176
     1
290
     0
176
     1
 90
       50
176
     1
 90
       50
176
     1
 90
       50
176
     1
290
     0
176
     1
 90
       50
176
     1
 62
   256
176
     0
 40
1.0
176
     0
 90
        2
176
     1
  1
strokes_ogs.tif
176
     1
290
     0
176
     1
 40
1.0
176
     1
 40
1.0
176
     1
  0
DICTIONARY
  5
5C6BF
102
{ACAD_REACTORS
330
5C6BE
102
}
330
5C6BE
100
AcDbDictionary
280
     1
281
     1
  3
DefaultStandard
360
9C879
  3
Standards
360
5C6C0
  0
DICTIONARYVAR
  5
B5D
102
{ACAD_REACTORS
330
66
102
}
330
66
100
DictionaryVariables
280
     0
  1
1:1
  0
DICTIONARYVAR
  5
B5C
102
{ACAD_REACTORS
330
66
102
}
330
66
100
DictionaryVariables
280
     0
  1
STANDARD
  0
DICTIONARYVAR
  5
89
102
{ACAD_REACTORS
330
66
102
}
330
66
100
DictionaryVariables
280
     0
  1
STANDARD
  0
DICTIONARYVAR
  5
66F55
102
{ACAD_REACTORS
330
66
102
}
330
66
100
DictionaryVariables
280
     0
  1
Imperial24
  0
DICTIONARYVAR
  5
66F56
102
{ACAD_REACTORS
330
66
102
}
330
66
100
DictionaryVariables
280
     0
  1
Imperial24
  0
DICTIONARYVAR
  5
67
102
{ACAD_REACTORS
330
66
102
}
330
66
100
DictionaryVariables
280
     0
  1
2
  0
DICTIONARYVAR
  5
6B
102
{ACAD_REACTORS
330
66
102
}
330
66
100
DictionaryVariables
280
     0
  1
1
  0
DICTIONARYVAR
  5
9D9A7
102
{ACAD_REACTORS
330
66
102
}
330
66
100
DictionaryVariables
280
     0
  1
BYLAYER
  0
DICTIONARYVAR
  5
9D9A6
102
{ACAD_REACTORS
330
66
102
}
330
66
100
DictionaryVariables
280
     0
  1
ByLayer
  0
DICTIONARYVAR
  5
25751
102
{ACAD_REACTORS
330
66
102
}
330
66
100
DictionaryVariables
280
     0
  1
1
  0
DICTIONARYVAR
  5
25752
102
{ACAD_REACTORS
330
66
102
}
330
66
100
DictionaryVariables
280
     0
  1
15
  0
DICTIONARYVAR
  5
F79
102
{ACAD_REACTORS
330
66
102
}
330
66
100
DictionaryVariables
280
     0
  1
0
  0
DICTIONARYVAR
  5
F78
102
{ACAD_REACTORS
330
66
102
}
330
66
100
DictionaryVariables
280
     0
  1
0
  0
DICTIONARY
  5
A21DF
330
5C440
100
AcDbDictionary
280
     1
281
     1
  3
ACAD_XREC_ROUNDTRIP
360
AE7F0
  0
DICTIONARY
  5
66EB6
330
22
100
AcDbDictionary
280
     1
281
     1
  0
XRECORD
  5
A15E7
102
{ACAD_REACTORS
330
A15E6
102
}
330
A15E6
100
AcDbXrecord
280
     1
 70
     2
 71
     3
 72
     0
  0
DICTIONARY
  5
A21DD
330
5C43E
100
AcDbDictionary
280
     1
281
     1
  3
ACAD_XREC_ROUNDTRIP
360
AE7EF
  0
DICTIONARY
  5
B4E
330
87
100
AcDbDictionary
280
     1
281
     1
  3
ACAD_ROUNDTRIP_2008_TABLESTYLE_CELLSTYLEMAP
360
AE7EE
  0
XRECORD
  5
9C879
102
{ACAD_REACTORS
330
5C6BF
102
}
330
5C6BF
100
AcDbXrecord
280
     1
1000
AIA Version 3
  0
BINRECORD
  5
5C6C0
102
{ACAD_REACTORS
330
5C6BF
102
}
330
5C6BF
100
AcAecBinRecord
 90
        0
 91
    19403
 70
     0
310
0100FFFEFF0D4100490041002000560065007200730069006F006E00200033000500FFFF01001C004163416563556B4C6179657244657363726970746976654669656C64FFFEFF154400690073006300690070006C0069006E0065002000440065007300690067006E00610074006F0072000102000000007B333637354541
310
46100100002100000070BA406CD0EA76040B00FFFEFF001500FFFEFF01520002000000FFFEFF085200650073006F0075007200630065000700FFFEFF01410002000000FFFEFF165200650073006F00750072006300650020004100720063006800690074006500630074007500720061006C00000000000000FFFEFF014D00
310
02000000FFFEFF135200650073006F00750072006300650020004D0065006300680061006E006900630061006C00000000000000FFFEFF014B0002000000FFFEFF175200650073006F007500720063006500200028005500730065007200200044006500660069006E00650064002900000000000000FFFEFF014A00020000
310
00FFFEFF175200650073006F007500720063006500200028005500730065007200200044006500660069006E00650064002900000000000000FFFEFF01450002000000FFFEFF135200650073006F007500720063006500200045006C0065006300740072006900630061006C00000000000000FFFEFF01430002000000FFFE
310
FF0E5200650073006F007500720063006500200043006900760069006C00000000000000FFFEFF01530002000000FFFEFF135200650073006F00750072006300650020005300740072007500630074007500720061006C0000000000000000000000FFFEFF01410002000000FFFEFF0D410072006300680069007400650063
310
0074007500720061006C000A00FFFEFF01500002000000FFFEFF144100720063006800690074006500630074007500720061006C00200050006100760069006E006700000000000000FFFEFF014B0002000000FFFEFF1C4100720063006800690074006500630074007500720061006C002000280055007300650072002000
310
44006500660069006E00650064002900000000000000FFFEFF014A0002000000FFFEFF1C4100720063006800690074006500630074007500720061006C00200028005500730065007200200044006500660069006E00650064002900000000000000FFFEFF01490002000000FFFEFF16410072006300680069007400650063
310
0074007500720061006C00200049006E0074006500720069006F007200000000000000FFFEFF01470002000000FFFEFF164100720063006800690074006500630074007500720061006C00200047007200610070006800690063007300000000000000FFFEFF01460002000000FFFEFF164100720063006800690074006500
310
630074007500720061006C002000460069006E0069007300680065007300000000000000FFFEFF01450002000000FFFEFF164100720063006800690074006500630074007500720061006C00200045006C0065006D0065006E0074007300000000000000FFFEFF01440002000000FFFEFF1841007200630068006900740065
310
00630074007500720061006C002000440065006D006F006C006900740069006F006E00000000000000FFFEFF01540002000000FFFEFF1C4100720063006800690074006500630074007500720061006C0020005400720061006E00730070006F00720074006100740069006F006E00000000000000FFFEFF01530002000000
310
FFFEFF124100720063006800690074006500630074007500720061006C002000530069007400650000000000000001000000FFFEFF01510002000000FFFEFF09450071007500690070006D0065006E0074001100FFFEFF01410002000000FFFEFF124100740068006C0065007400690063002000450071007500690070006D
310
0065006E007400000000000000FFFEFF01520002000000FFFEFF10520065007400610069006C002000450071007500690070006D0065006E007400000000000000FFFEFF01500002000000FFFEFF155000610072006B0069006E00670020004C006F0074002000450071007500690070006D0065006E007400000000000000
310
FFFEFF014D0002000000FFFEFF154D00610069006E00740065006E0061006E00630065002000450071007500690070006D0065006E007400000000000000FFFEFF014C0002000000FFFEFF144C00610062006F007200610074006F00720079002000450071007500690070006D0065006E007400000000000000FFFEFF014B
310
0002000000FFFEFF18450071007500690070006D0065006E007400200028005500730065007200200044006500660069006E00650064002900000000000000FFFEFF014A0002000000FFFEFF18450071007500690070006D0065006E007400200028005500730065007200200044006500660069006E006500640029000000
310
00000000FFFEFF01480002000000FFFEFF1248006F00730070006900740061006C002000450071007500690070006D0065006E007400000000000000FFFEFF01590002000000FFFEFF12530065006300750072006900740079002000450071007500690070006D0065006E007400000000000000FFFEFF01460002000000FF
310
FEFF1646006F006F006400200053006500720076006900630065002000450071007500690070006D0065006E007400000000000000FFFEFF01450002000000FFFEFF1545006400750063006100740069006F006E0061006C002000450071007500690070006D0065006E007400000000000000FFFEFF01560002000000FFFE
310
FF1C56006900640065006F002F00500068006F0074006F0067007200610070006800690063002000450071007500690070006D0065006E007400000000000000FFFEFF01440002000000FFFEFF1344006500740065006E00740069006F006E002000450071007500690070006D0065006E007400000000000000FFFEFF0143
310
0002000000FFFEFF16440072007900200043006C00650061006E0069006E0067002000450071007500690070006D0065006E007400000000000000FFFEFF01540002000000FFFEFF145400680065006100740072006900630061006C002000450071007500690070006D0065006E007400000000000000FFFEFF0142000200
310
0000FFFEFF0E420061006E006B002000450071007500690070006D0065006E007400000000000000FFFEFF01530002000000FFFEFF0E53006900740065002000450071007500690070006D0065006E00740000000000000000000000FFFEFF01500002000000FFFEFF0850006C0075006D00620069006E0067000600FFFEFF
310
01510002000000FFFEFF1250006C0075006D00620069006E0067002000450071007500690070006D0065006E007400000000000000FFFEFF01500002000000FFFEFF0F50006C0075006D00620069006E006700200050006900700069006E006700000000000000FFFEFF014B0002000000FFFEFF1750006C0075006D006200
310
69006E006700200028005500730065007200200044006500660069006E00650064002900000000000000FFFEFF014A0002000000FFFEFF1750006C0075006D00620069006E006700200028005500730065007200200044006500660069006E00650064002900000000000000FFFEFF01440002000000FFFEFF1350006C0075
310
006D00620069006E0067002000440065006D006F006C006900740069006F006E00000000000000FFFEFF01530002000000FFFEFF0D50006C0075006D00620069006E0067002000530069007400650000000000000000000000FFFEFF014F0002000000FFFEFF0A4F007000650072006100740069006F006E0073000200FFFE
310
FF014B0002000000FFFEFF194F007000650072006100740069006F006E007300200028005500730065007200200044006500660069006E00650064002900000000000000FFFEFF014A0002000000FFFEFF194F007000650072006100740069006F006E007300200028005500730065007200200044006500660069006E0065
310
006400290000000000000000000000FFFEFF014D0002000000FFFEFF0A4D0065006300680061006E006900630061006C000700FFFEFF01500002000000FFFEFF114D0065006300680061006E006900630061006C00200050006900700069006E006700000000000000FFFEFF014B0002000000FFFEFF194D00650063006800
310
61006E006900630061006C00200028005500730065007200200044006500660069006E00650064002900000000000000FFFEFF014A0002000000FFFEFF194D0065006300680061006E006900630061006C00200028005500730065007200200044006500660069006E00650064002900000000000000FFFEFF014900020000
310
00FFFEFF1A4D0065006300680061006E006900630061006C00200049006E0073007400720075006D0065006E0074006100740069006F006E00000000000000FFFEFF01480002000000FFFEFF0F4D0065006300680061006E006900630061006C0020004800560041004300000000000000FFFEFF01440002000000FFFEFF15
310
4D0065006300680061006E006900630061006C002000440065006D006F006C006900740069006F006E00000000000000FFFEFF01530002000000FFFEFF0F4D0065006300680061006E006900630061006C002000530069007400650000000000000000000000FFFEFF014C0002000000FFFEFF094C0061006E006400730063
310
006100700065000500FFFEFF01500002000000FFFEFF124C0061006E00640073006300610070006500200050006C0061006E00740069006E006700000000000000FFFEFF014B0002000000FFFEFF184C0061006E00640073006300610070006500200028005500730065007200200044006500660069006E00650064002900
310
000000000000FFFEFF014A0002000000FFFEFF184C0061006E00640073006300610070006500200028005500730065007200200044006500660069006E00650064002900000000000000FFFEFF01490002000000FFFEFF144C0061006E006400730063006100700065002000490072007200690067006100740069006F006E
310
00000000000000FFFEFF01440002000000FFFEFF144C0061006E006400730063006100700065002000440065006D006F006C006900740069006F006E0000000000000000000000FFFEFF015A0002000000FFFEFF1A43006F006E00740072006100630074006F00720020002F002000530068006F0070002000440072006100
310
770069006E00670073000200FFFEFF014B0002000000FFFEFF2943006F006E00740072006100630074006F00720020002F002000530068006F0070002000440072006100770069006E0067007300200028005500730065007200200044006500660069006E00650064002900000000000000FFFEFF014A0002000000FFFEFF
310
2943006F006E00740072006100630074006F00720020002F002000530068006F0070002000440072006100770069006E0067007300200028005500730065007200200044006500660069006E0065006400290000000000000000000000FFFEFF01490002000000FFFEFF0949006E0074006500720069006F00720073000600
310
FFFEFF014E0002000000FFFEFF0F49006E0074006500720069006F0072002000440065007300690067006E00000000000000FFFEFF014B0002000000FFFEFF1849006E0074006500720069006F0072007300200028005500730065007200200044006500660069006E00650064002900000000000000FFFEFF014A00020000
310
00FFFEFF1849006E0074006500720069006F0072007300200028005500730065007200200044006500660069006E00650064002900000000000000FFFEFF01470002000000FFFEFF1249006E0074006500720069006F0072007300200047007200610070006800690063007300000000000000FFFEFF01460002000000FFFE
310
FF1149006E0074006500720069006F0072002000460069006E0069007300680065007300000000000000FFFEFF01440002000000FFFEFF1349006E0074006500720069006F0072002000440065006D006F006C006900740069006F006E0000000000000000000000FFFEFF01480002000000FFFEFF13480061007A00610072
310
0064006F007500730020004D006100740065007200690061006C0073000700FFFEFF01410002000000FFFEFF084100730062006500730074006F007300000000000000FFFEFF01520002000000FFFEFF0C5200650066007200690067006500720061006E0074007300000000000000FFFEFF01500002000000FFFEFF035000
310
43004200000000000000FFFEFF014C0002000000FFFEFF044C00650061006400000000000000FFFEFF014B0002000000FFFEFF22480061007A006100720064006F007500730020004D006100740065007200690061006C007300200028005500730065007200200044006500660069006E00650064002900000000000000FF
310
FEFF014A0002000000FFFEFF22480061007A006100720064006F007500730020004D006100740065007200690061006C007300200028005500730065007200200044006500660069006E00650064002900000000000000FFFEFF01430002000000FFFEFF094300680065006D006900630061006C0073000000000000000000
310
0000FFFEFF01580002000000FFFEFF114F00740068006500720020004400690073006300690070006C0069006E00650073000200FFFEFF014B0002000000FFFEFF204F00740068006500720020004400690073006300690070006C0069006E0065007300200028005500730065007200200044006500660069006E00650064
310
002900000000000000FFFEFF014A0002000000FFFEFF204F00740068006500720020004400690073006300690070006C0069006E0065007300200028005500730065007200200044006500660069006E0065006400290000000000000000000000FFFEFF01470002000000FFFEFF07470065006E006500720061006C000500
310
FFFEFF01520002000000FFFEFF10470065006E006500720061006C0020005200650073006F007500720063006500000000000000FFFEFF014B0002000000FFFEFF16470065006E006500720061006C00200028005500730065007200200044006500660069006E00650064002900000000000000FFFEFF014A0002000000FF
310
FEFF16470065006E006500720061006C00200028005500730065007200200044006500660069006E00650064002900000000000000FFFEFF01490002000000FFFEFF13470065006E006500720061006C00200049006E0066006F0072006D006100740069006F006E00000000000000FFFEFF01430002000000FFFEFF134700
310
65006E006500720061006C00200043006F006E0074007200610063007400750061006C0000000000000000000000FFFEFF01460002000000FFFEFF0F46006900720065002000500072006F00740065006300740069006F006E000400FFFEFF01410002000000FFFEFF18460069007200650020004400650074006500630074
310
0069006F006E00200061006E006400200041006C00610072006D00000000000000FFFEFF014B0002000000FFFEFF134600690072006500200028005500730065007200200044006500660069006E00650064002900000000000000FFFEFF014A0002000000FFFEFF1346006900720065002000280055007300650072002000
310
44006500660069006E00650064002900000000000000FFFEFF01530002000000FFFEFF10460069007200650020005300750070007000720065007300730069006F006E0000000000000000000000FFFEFF01570002000000FFFEFF0B43006900760069006C00200057006F0072006B0073000200FFFEFF014B0002000000FF
310
FEFF1A43006900760069006C00200057006F0072006B007300200028005500730065007200200044006500660069006E00650064002900000000000000FFFEFF014A0002000000FFFEFF1A43006900760069006C00200057006F0072006B007300200028005500730065007200200044006500660069006E00650064002900
310
00000000000000000000FFFEFF01450002000000FFFEFF0A45006C0065006300740072006900630061006C000900FFFEFF01500002000000FFFEFF1045006C0065006300740072006900630061006C00200050006F00770065007200000000000000FFFEFF014C0002000000FFFEFF1345006C006500630074007200690063
310
0061006C0020004C00690067006800740069006E006700000000000000FFFEFF014B0002000000FFFEFF1945006C0065006300740072006900630061006C00200028005500730065007200200044006500660069006E00650064002900000000000000FFFEFF014A0002000000FFFEFF1945006C0065006300740072006900
310
630061006C00200028005500730065007200200044006500660069006E00650064002900000000000000FFFEFF01490002000000FFFEFF1A45006C0065006300740072006900630061006C00200049006E0073007400720075006D0065006E0074006100740069006F006E00000000000000FFFEFF01590002000000FFFEFF
310
1C45006C0065006300740072006900630061006C00200041007500780069006C0069006100720079002000530079007300740065006D007300000000000000FFFEFF01440002000000FFFEFF1545006C0065006300740072006900630061006C002000440065006D006F006C006900740069006F006E00000000000000FFFE
310
FF01540002000000FFFEFF1D45006C0065006300740072006900630061006C002000540065006C00650063006F006D006D0075006E00690063006100740069006F006E007300000000000000FFFEFF01530002000000FFFEFF0F45006C0065006300740072006900630061006C002000530069007400650000000000000000
310
000000FFFEFF01560002000000FFFEFF1053007500720076006500790020002F0020004D0061007000700069006E0067000500FFFEFF01410002000000FFFEFF0D410065007200690061006C002000530075007200760065007900000000000000FFFEFF014B0002000000FFFEFF1F53007500720076006500790020002F00
310
20004D0061007000700069006E006700200028005500730065007200200044006500660069006E00650064002900000000000000FFFEFF014A0002000000FFFEFF1F53007500720076006500790020002F0020004D0061007000700069006E006700200028005500730065007200200044006500660069006E006500640029
310
00000000000000FFFEFF01490002000000FFFEFF0E4400690067006900740061006C002000530075007200760065007900000000000000FFFEFF01460002000000FFFEFF0C4600690065006C006400200053007500720076006500790000000000000000000000FFFEFF01440002000000FFFEFF07500072006F0063006500
310
730073000E00FFFEFF01410002000000FFFEFF0C500072006F00630065007300730020004100690072007300000000000000FFFEFF01520002000000FFFEFF19500072006F006300650073007300200044007200610069006E0073002000260020005200650063006C00610069006D007300000000000000FFFEFF01510002
310
000000FFFEFF11500072006F0063006500730073002000450071007500690070006D0065006E007400000000000000FFFEFF01500002000000FFFEFF0E500072006F006300650073007300200050006900700069006E006700000000000000FFFEFF014F0002000000FFFEFF0B500072006F00630065007300730020004F00
310
69006C00000000000000FFFEFF01470002000000FFFEFF0D500072006F006300650073007300200047006100730065007300000000000000FFFEFF01580002000000FFFEFF0F500072006F00630065007300730020004500780068006100750073007400000000000000FFFEFF01570002000000FFFEFF0E500072006F0063
310
006500730073002000570061007400650072007300000000000000FFFEFF01450002000000FFFEFF12500072006F006300650073007300200045006C0065006300740072006900630061006C00000000000000FFFEFF01560002000000FFFEFF0E500072006F0063006500730073002000560061006300750075006D000000
310
00000000FFFEFF01440002000000FFFEFF12500072006F0063006500730073002000440065006D006F006C006900740069006F006E00000000000000FFFEFF01430002000000FFFEFF11500072006F00630065007300730020004300680065006D006900630061006C007300000000000000FFFEFF01540002000000FFFEFF
310
18500072006F006300650073007300200045006E0074007200610069006E0065006400200053006F006C00690064007300000000000000FFFEFF01530002000000FFFEFF0C500072006F0063006500730073002000530069007400650000000000000000000000FFFEFF01540002000000FFFEFF12540065006C0065006300
310
6F006D006D0075006E00690063006100740069006F006E0073000900FFFEFF01410002000000FFFEFF0E41007500640069006F0020002F002000560069007300750061006C00000000000000FFFEFF014E0002000000FFFEFF0D440061007400610020004E006500740077006F0072006B007300000000000000FFFEFF014D
310
0002000000FFFEFF0A4D006F006E00690074006F00720069006E006700000000000000FFFEFF014B0002000000FFFEFF21540065006C00650063006F006D006D0075006E00690063006100740069006F006E007300200028005500730065007200200044006500660069006E00650064002900000000000000FFFEFF014A00
310
02000000FFFEFF21540065006C00650063006F006D006D0075006E00690063006100740069006F006E007300200028005500730065007200200044006500660069006E00650064002900000000000000FFFEFF01490002000000FFFEFF0849006E0074006500720063006F006D00000000000000FFFEFF01590002000000FF
310
FEFF0853006500630075007200690074007900000000000000FFFEFF01430002000000FFFEFF1143006C006F0063006B00200061006E0064002000500072006F006700720061006D00000000000000FFFEFF01540002000000FFFEFF09540065006C006500700068006F006E00650000000000000000000000FFFEFF014300
310
02000000FFFEFF0543006900760069006C000900FFFEFF01500002000000FFFEFF0C43006900760069006C00200050006100760069006E006700000000000000FFFEFF014B0002000000FFFEFF1443006900760069006C00200028005500730065007200200044006500660069006E00650064002900000000000000FFFEFF
310
014A0002000000FFFEFF1443006900760069006C00200028005500730065007200200044006500660069006E00650064002900000000000000FFFEFF01490002000000FFFEFF1243006900760069006C00200049006D00700072006F00760065006D0065006E0074007300000000000000FFFEFF01470002000000FFFEFF0D
310
43006900760069006C002000470072006100640069006E006700000000000000FFFEFF01550002000000FFFEFF0F43006900760069006C0020005500740069006C0069007400690065007300000000000000FFFEFF01440002000000FFFEFF1043006900760069006C002000440065006D006F006C006900740069006F006E
310
00000000000000FFFEFF01540002000000FFFEFF1443006900760069006C0020005400720061006E00730070006F00720074006100740069006F006E00000000000000FFFEFF01530002000000FFFEFF0A43006900760069006C002000530069007400650000000000000000000000FFFEFF01530002000000FFFEFF0A5300
310
740072007500630074007500720061006C000600FFFEFF014B0002000000FFFEFF195300740072007500630074007500720061006C00200028005500730065007200200044006500660069006E00650064002900000000000000FFFEFF014A0002000000FFFEFF195300740072007500630074007500720061006C00200028
310
005500730065007200200044006500660069006E00650064002900000000000000FFFEFF01460002000000FFFEFF125300740072007500630074007500720061006C0020004600720061006D0069006E006700000000000000FFFEFF01440002000000FFFEFF155300740072007500630074007500720061006C0020004400
310
65006D006F006C006900740069006F006E00000000000000FFFEFF01420002000000FFFEFF175300740072007500630074007500720061006C002000530075006200730074007200750063007400750072006500000000000000FFFEFF01530002000000FFFEFF0F5300740072007500630074007500720061006C00200053
310
0069007400650000000000000000000000FFFEFF01420002000000FFFEFF0C470065006F0074006500630068006E006900630061006C000200FFFEFF014B0002000000FFFEFF1B470065006F0074006500630068006E006900630061006C00200028005500730065007200200044006500660069006E006500640029000000
310
00000000FFFEFF014A0002000000FFFEFF1B470065006F0074006500630068006E006900630061006C00200028005500730065007200200044006500660069006E00650064002900000000000000000000000180FFFEFF054D0061006A006F0072000300000000000000000000000000000000000000000000000000000000
310
000000FFFEFF002300FFFEFF052D004400650074006C0002000000FFFEFF06440065007400610069006C00000000000000FFFEFF052D0043006C006E00670002000000FFFEFF074300650069006C0069006E006700000000000000FFFEFF052D0052006F006F00660002000000FFFEFF0452006F006F006600000000000000
310
FFFEFF052D00470072006900640002000000FFFEFF0A470072006900640020006C0069006E0065007300000000000000FFFEFF052D00460069007200650002000000FFFEFF1446006900720065002000700072006F00740065006300740069006F006E00200070006C0061006E00000000000000FFFEFF052D00500072006F
310
00740002000000FFFEFF1646006900720065002000700072006F00740065006300740069006F006E002000730079007300740065006D00000000000000FFFEFF052D0043006F006C00730002000000FFFEFF0743006F006C0075006D006E007300000000000000FFFEFF052D004300740072006C0002000000FFFEFF0E4300
310
6F006E00740072006F006C00200050006F0069006E0074007300000000000000FFFEFF052D004500710070006D0002000000FFFEFF09450071007500690070006D0065006E007400000000000000FFFEFF052D00570061006C006C0002000000FFFEFF05570061006C006C007300000000000000FFFEFF052D00500072006F
310
00700002000000FFFEFF08500072006F0070006500720074007900000000000000FFFEFF052D00530065006300740002000000FFFEFF07530065006300740069006F006E00000000000000FFFEFF052D0050006F006C00790002000000FFFEFF0850006F006C00790067006F006E007300000000000000FFFEFF052D004C00
310
69007400650002000000FFFEFF114C00690067006800740069006E006700200066006900780074007500720065007300000000000000FFFEFF052D00410063006300730002000000FFFEFF0B410063006300650073007300200070006C0061006E00000000000000FFFEFF052D00480056004100430002000000FFFEFF0448
310
00560041004300000000000000FFFEFF052D0045006C006500630002000000FFFEFF0A45006C0065006300740072006900630061006C00000000000000FFFEFF052D0054006F0070006F0002000000FFFEFF0A54006F0070006F00670072006100700068007900000000000000FFFEFF052D0043006F006400650002000000
310
FFFEFF1443006F0064006500200063006F006D0070006C00690061006E0063006500200070006C0061006E00000000000000FFFEFF052D0047006C0061007A0002000000FFFEFF0747006C0061007A0069006E006700000000000000FFFEFF052D00540069006E006E0002000000FFFEFF1E54007200690061006E00670075
310
006C00610074006500640020006900720072006500670075006C006100720020006E006500740077006F0072006B00000000000000FFFEFF052D0050006C0061006E0002000000FFFEFF154B0065007900200070006C0061006E002000280066006C006F006F007200200070006C0061006E002900000000000000FFFEFF05
310
2D0046006C006F00720002000000FFFEFF0546006C006F006F007200000000000000FFFEFF052D004600750072006E0002000000FFFEFF0B4600750072006E0069007300680069006E0067007300000000000000FFFEFF052D004200650061006D0002000000FFFEFF054200650061006D007300000000000000FFFEFF052D
310
0044006F006F00720002000000FFFEFF0544006F006F0072007300000000000000FFFEFF052D0041006E006E006F0002000000FFFEFF0A41006E006E006F0074006100740069006F006E00000000000000FFFEFF052D00450076006100630002000000FFFEFF0F450076006100630075006100740069006F006E0020007000
310
6C0061006E00000000000000FFFEFF052D00530069007400650002000000FFFEFF095300690074006500200070006C0061006E00000000000000FFFEFF052D0043006F006E00760002000000FFFEFF1143006F006E0076006500790069006E0067002000730079007300740065006D007300000000000000FFFEFF052D0053
310
006C006100620002000000FFFEFF0553006C00610062007300000000000000FFFEFF052D0043006F006D006D0002000000FFFEFF12540065006C00650063006F006D006D0075006E00690063006100740069006F006E007300000000000000FFFEFF052D005300740072006D0002000000FFFEFF0844007200610069006E00
310
610067006500000000000000FFFEFF052D00410072006500610002000000FFFEFF044100720065006100000000000000FFFEFF052D0045006C006500760002000000FFFEFF0945006C00650076006100740069006F006E000000000000000180FFFEFF074D0069006E006F00720020003100040000000000000000F00E7704
310
00000000000000000000000000000000F00000FFFEFF006A00FFFEFF052D004F00700065006E0002000000FFFEFF084F00700065006E0069006E0067007300000000000000FFFEFF052D005300690067006E0002000000FFFEFF055300690067006E007300000000000000FFFEFF052D0043006C006E00670002000000FFFE
310
FF074300650069006C0069006E006700000000000000FFFEFF052D00570069006400650002000000FFFEFF19570069006400650020007700650069006700680074002000670072006100700068006900630020006C0069006E0065007300000000000000FFFEFF052D00530044004600460002000000FFFEFF105300750070
310
0070006C0079002000640069006600660075007300650072007300000000000000FFFEFF052D004D0063007500740002000000FFFEFF164D00610069006E00200063007500740020006C0069006E006500200065006C0065006D0065006E0074007300000000000000FFFEFF052D00470072006900640002000000FFFEFF04
310
4700720069006400000000000000FFFEFF052D00460069007200650002000000FFFEFF0A46006900720065002000770061006C006C007300000000000000FFFEFF052D00410062006F00760002000000FFFEFF0E45006C0065006D0065006E00740073002000610062006F0076006500000000000000FFFEFF052D00500072
310
006F00660002000000FFFEFF08500072006F00660069006C0065007300000000000000FFFEFF052D00530079006D00620002000000FFFEFF07530079006D0062006F006C007300000000000000FFFEFF052D00480065007600790002000000FFFEFF1A48006500610076007900200077006500690067006800740020006700
310
72006100700068006900630020006C0069006E0065007300000000000000FFFEFF052D00430061007600690002000000FFFEFF06430061007600690074007900000000000000FFFEFF052D005500740069006C0002000000FFFEFF095500740069006C0069007400690065007300000000000000FFFEFF052D004E006F0074
310
00650002000000FFFEFF054E006F00740065007300000000000000FFFEFF052D00530065006100740002000000FFFEFF07530065006100740069006E006700000000000000FFFEFF052D00460072006500650002000000FFFEFF0C46007200650065007300740061006E00640069006E006700000000000000FFFEFF052D00
310
460061007300630002000000FFFEFF074600610073006300690061007300000000000000FFFEFF052D00500072006800740002000000FFFEFF0E5000610072007400690061006C002000680065006900670068007400000000000000FFFEFF052D004D00610072006B0002000000FFFEFF1D4D00610072006B006500720073
310
002C00200062007200650061006B0020006D00610072006B0073002C0020006C00650061006400650072007300000000000000FFFEFF052D00530070006300650002000000FFFEFF0553007000610063006500000000000000FFFEFF052D004900640065006E0002000000FFFEFF134900640065006E007400690066006900
310
63006100740069006F006E0020005400610067007300000000000000FFFEFF052D0057006B007300660002000000FFFEFF1E530079007300740065006D00200077006F0072006B0020007300750072006600610063006500200063006F006D0070006F006E0065006E0074007300000000000000FFFEFF052D005200610069
310
00730002000000FFFEFF06520061006900730065006400000000000000FFFEFF052D004A0061006D00620002000000FFFEFF1544006F006F007200200061006E0064002000770069006E0064006F00770020006A0061006D0062007300000000000000FFFEFF052D00450076007400720002000000FFFEFF1B45006C006500
310
7600610074006F00720020006300610072007300200061006E0064002000650071007500690070006D0065006E007400000000000000FFFEFF052D00540065007800740002000000FFFEFF045400650078007400000000000000FFFEFF052D004500710070006D0002000000FFFEFF09450071007500690070006D0065006E
310
007400000000000000FFFEFF052D00570061006C006C0002000000FFFEFF05570061006C006C007300000000000000FFFEFF052D00460069006C00650002000000FFFEFF0D460069006C006500200063006100620069006E00650074007300000000000000FFFEFF052D004100730073006D0002000000FFFEFF0A41007300
310
730065006D0062006C00690065007300000000000000FFFEFF052D0046006E007300680002000000FFFEFF08460069006E0069007300680065007300000000000000FFFEFF052D004D00610073006B0002000000FFFEFF1241004400540020004D00610073006B0069006E00670020004F0062006A00650063007400000000
310
000000FFFEFF052D005400690074006C0002000000FFFEFF18440072006100770069006E00670020006F0072002000640065007400610069006C0020007400690074006C0065007300000000000000FFFEFF052D004C0069007400650002000000FFFEFF084C00690067006800740069006E006700000000000000FFFEFF05
310
2D00410063006300730002000000FFFEFF06410063006300650073007300000000000000FFFEFF052D004C00610062006C0002000000FFFEFF064C006100620065006C007300000000000000FFFEFF052D00520065006600720002000000FFFEFF195200650066006500720065006E00630065002C00200065007800740065
310
0072006E0061006C002000660069006C0065007300000000000000FFFEFF052D004D00650064006D0002000000FFFEFF1B4D0065006400690075006D0020007700650069006700680074002000670072006100700068006900630020006C0069006E0065007300000000000000FFFEFF052D00530074007200730002000000
310
FFFEFF215300740061006900720020007400720065006100640073002C00200065007300630061006C00610074006F00720073002C0020006C00610064006400650072007300000000000000FFFEFF052D00430075007200740002000000FFFEFF0C4300750072007400610069006E002000570061006C006C000000000000
310
00FFFEFF052D00440065006D006F0002000000FFFEFF0A440065006D006F006C006900740069006F006E00000000000000FFFEFF052D00560069006500770002000000FFFEFF13560069006500770070006F0072007400200044006500660069006E006900740069006F006E00000000000000FFFEFF052D00440069006D00
310
730002000000FFFEFF0A440069006D0065006E00730069006F006E007300000000000000FFFEFF052D0053006C006300650002000000FFFEFF0653006C006900630065007300000000000000FFFEFF052D0043006F006E006E0002000000FFFEFF0B43006F006E006E0065006300740069006F006E007300000000000000FF
310
FEFF052D0042006C006F00770002000000FFFEFF0E45006C0065006D0065006E00740073002000620065006C006F007700000000000000FFFEFF052D00460069006E00650002000000FFFEFF19460069006E00650020007700650069006700680074002000670072006100700068006900630020006C0069006E0065007300
310
000000000000FFFEFF052D00530075007300700002000000FFFEFF12530075007300700065006E00640065006400200065006C0065006D0065006E0074007300000000000000FFFEFF052D004C00650076006C0002000000FFFEFF274C006500760065006C0020006300680061006E006700650073002C002000720061006D
310
00700073002C00200070006900740073002C002000640065007000720065007300730069006F006E007300000000000000FFFEFF052D00460069007800640002000000FFFEFF0F460069007800650064002000650071007500690070006D0065006E007400000000000000FFFEFF052D004F0063006300700002000000FFFE
310
FF1A4F00630063007500700061006E00740020006F007200200065006D0070006C006F0079006500650020006E0061006D0065007300000000000000FFFEFF052D00480069006400650002000000FFFEFF0E480069006400640065006E0020006F0062006A006500630074007300000000000000FFFEFF052D004100640074
310
00760002000000FFFEFF1141006400640069007400690076006500200065006C0065006D0065006E0074007300000000000000FFFEFF052D00520064006D00650002000000FFFEFF1B52006500610064002D006D00650020006C006100790065007200200028006E006F007400200070006C006F0074007400650064002900
310
000000000000FFFEFF052D005300630072006E0002000000FFFEFF14530063007200650065006E006500640020004200610063006B00670072006F0075006E0064007300000000000000FFFEFF052D00460069007800740002000000FFFEFF1170006C0075006D00620069006E006700200066006900780074007500720065
310
007300000000000000FFFEFF052D004C00650067006E0002000000FFFEFF144C006500670065006E00640073002C002000530079006D0062006F006C0020006B00650079007300000000000000FFFEFF052D0043006E007400720002000000FFFEFF0A430065006E007400650072006C0069006E006500000000000000FFFE
310
FF052D00420064007200790002000000FFFEFF0842006F0075006E006400610072007900000000000000FFFEFF052D0050006F007700720002000000FFFEFF0550006F00770065007200000000000000FFFEFF052D00470072007000730002000000FFFEFF06470072006F00750070007300000000000000FFFEFF052D004B
310
00650079006E0002000000FFFEFF084B00650079006E006F00740065007300000000000000FFFEFF052D00420072006300650002000000FFFEFF06420072006100630065007300000000000000FFFEFF052D005300700063006C0002000000FFFEFF0B5300700065006300690061006C007400690065007300000000000000
310
FFFEFF052D004F0074006C006E0002000000FFFEFF074F00750074006C0069006E006500000000000000FFFEFF052D005400700074006E0002000000FFFEFF1154006F0069006C0065007400200070006100720074006900740069006F006E007300000000000000FFFEFF052D005200650066006C0002000000FFFEFF0E52
310
00650066006C0065006300740065006400200050006C0061006E00000000000000FFFEFF052D005400680069006E0002000000FFFEFF195400680069006E0020007700650069006700680074002000670072006100700068006900630020006C0069006E0065007300000000000000FFFEFF052D005000650070006C000200
310
0000FFFEFF06500065006F0070006C006500000000000000FFFEFF052D004F0076006800640002000000FFFEFF084F007600650072006800650061006400000000000000FFFEFF052D004800720061006C0002000000FFFEFF16480061006E0064007200610069006C0073002C002000670075006100720064002000720061
310
0069006C007300000000000000FFFEFF052D004D0061007400630002000000FFFEFF0B4D00610074006300680020006C0069006E0065007300000000000000FFFEFF052D00520044004600460002000000FFFEFF14520065007400750072006E00200061006900720020006400690066006600750073006500720073000000
310
00000000FFFEFF052D00540074006C00620002000000FFFEFF1642006F007200640065007200200061006E00640020007400690074006C006500200062006C006F0063006B00000000000000FFFEFF052D00530077006300680002000000FFFEFF0853007700690074006300680065007300000000000000FFFEFF052D0041
310
00700070006C0002000000FFFEFF0A4100700070006C00690061006E00630065007300000000000000FFFEFF052D00540065006500730002000000FFFEFF094D00610069006E0020007400650065007300000000000000FFFEFF052D005700640077006B0002000000FFFEFF16410072006300680069007400650063007400
310
7500720061006C00200077006F006F00640077006F0072006B00000000000000FFFEFF052D004C0069006E00650002000000FFFEFF0D44006500660069006E0069006E00670020004C0069006E006500000000000000FFFEFF052D004D0061007300730002000000FFFEFF104D0061007300730069006E006700200045006C
310
0065006D0065006E0074007300000000000000FFFEFF052D005400610062006C0002000000FFFEFF0B440061007400610020007400610062006C0065007300000000000000FFFEFF052D00540068006C00640002000000FFFEFF0A5400680072006500730068006F006C0064007300000000000000FFFEFF052D0053006300
310
6800640002000000FFFEFF095300630068006500640075006C0065007300000000000000FFFEFF052D00460075006C006C0002000000FFFEFF0B460075006C006C002D00680065006900670068007400000000000000FFFEFF052D00480065006100640002000000FFFEFF1744006F006F007200200061006E006400200077
310
0069006E0064006F00770020006800650061006400650072007300000000000000FFFEFF052D004D006F007600650002000000FFFEFF124D006F0076006500610062006C0065002000650071007500690070006D0065006E007400000000000000FFFEFF052D00420072006E00670002000000FFFEFF1A4200650061007200
310
69006E0067007300200026002000640069007300740061006E006300650020006C006100620065006C007300000000000000FFFEFF052D0043006F006D00700002000000FFFEFF1349006E007400650072006E0061006C00200063006F006D0070006F006E0065006E0074007300000000000000FFFEFF052D00530074006F
310
00720002000000FFFEFF19530079007300740065006D002000730074006F007200610067006500200063006F006D0070006F006E0065006E0074007300000000000000FFFEFF052D0050006B006E00670002000000FFFEFF075000610072006B0069006E006700000000000000FFFEFF052D004E00690063006E0002000000
310
FFFEFF0F4E006F007400200069006E00200063006F006E0074007200610063007400000000000000FFFEFF052D00430068006100730002000000FFFEFF0543006800610073006500000000000000FFFEFF052D004E0070006C00740002000000FFFEFF204E006F006E002D0070006C006F007400740069006E006700200067
310
00720061007000680069006300200069006E0066006F0072006D006100740069006F006E00000000000000FFFEFF052D005600680063006C0002000000FFFEFF08560065006800690063006C0065007300000000000000FFFEFF052D00520065007600730002000000FFFEFF095200650076006900730069006F006E007300
310
000000000000FFFEFF052D00500061007400740002000000FFFEFF19540065007800740075007200650020006F00720020006800610074006300680020007000610074007400650072006E007300000000000000FFFEFF052D0053006C006100620002000000FFFEFF0553006C00610062007300000000000000FFFEFF052D
310
0043006F006D006D0002000000FFFEFF1A540065006C006500700068006F006E0065002C00200063006F006D006D0075006E00690063006100740069006F006E0073002000000000000000FFFEFF052D00430061007300650002000000FFFEFF08430061007300650077006F0072006B00000000000000FFFEFF052D005200
310
65007600630002000000FFFEFF0F5200650076006900730069006F006E00200063006C006F00750064007300000000000000FFFEFF052D0050006C006E00740002000000FFFEFF0650006C0061006E0074007300000000000000FFFEFF052D00530075006200740002000000FFFEFF14530075006200740072006100630074
310
00690076006500200065006C0065006D0065006E0074007300000000000000FFFEFF052D0050006E006C00730002000000FFFEFF0D530079007300740065006D002000700061006E0065006C007300000000000000FFFEFF052D00520069007300720002000000FFFEFF0C5300740061006900720020007200690073006500
310
72007300000000000000FFFEFF052D00530069006C006C0002000000FFFEFF0C570069006E0064006F0077002000730069006C006C0073000000000000000180FFFEFF074D0069006E006F0072002000320005000000004164642062656C6F77207468652073656C6563746564206974656DFFFEFF001600FFFEFF052D0041
310
0062006F00760002000000FFFEFF0E45006C0065006D0065006E00740073002000610062006F0076006500000000000000FFFEFF052D004E006F007400650002000000FFFEFF16470065006E006500720061006C0020005400650078007400200061006E00640020004E006F00740065007300000000000000FFFEFF052D00
310
460061007300630002000000FFFEFF06460061007300630069006100000000000000FFFEFF052D004900640065006E0002000000FFFEFF0A4900640065006E00740069006600690065007200000000000000FFFEFF052D0055006E006900740002000000FFFEFF0455006E0069007400000000000000FFFEFF052D00540069
310
0074006C0002000000FFFEFF065400690074006C0065007300000000000000FFFEFF052D00440069006D00730002000000FFFEFF0A440069006D0065006E00730069006F006E007300000000000000FFFEFF052D0053006C006300650002000000FFFEFF0653006C006900630065007300000000000000FFFEFF052D004700
310
6C0061007A0002000000FFFEFF0747006C0061007A0069006E006700000000000000FFFEFF052D00480069006400650002000000FFFEFF0F480069006400640065006E00200065006C0065006D0065006E0074007300000000000000FFFEFF052D00420064007200790002000000FFFEFF0D4500640067006500200062006F
310
0075006E006400610072007900000000000000FFFEFF052D00470072007000730002000000FFFEFF06470072006F00750070007300000000000000FFFEFF052D004F0074006C006E0002000000FFFEFF074F00750074006C0069006E006500000000000000FFFEFF052D005200650066006C0002000000FFFEFF0F52006500
310
66006C0065006300740065006400200050006C0061006E007300000000000000FFFEFF052D005400680069006E0002000000FFFEFF0E4D0069006E006F00720020006C0069006E00650077006F0072006B00000000000000FFFEFF052D004C0069006E00650002000000FFFEFF10470065006E006500720061006C0020006C
310
0069006E00650077006F0072006B00000000000000FFFEFF052D004E0070006C00740002000000FFFEFF154E006F006E002D0070006C006F007400740069006E006700200065006C0065006D0065006E0074007300000000000000FFFEFF052D00530066006900740002000000FFFEFF0653006F0066006600690074000000
310
00000000FFFEFF052D00500061007400740002000000FFFEFF0E4800610074006300680020007000610074007400650072006E007300000000000000FFFEFF052D005300630061006C0002000000FFFEFF10470072006100700068006900630061006C0020005300630061006C0065007300000000000000FFFEFF052D0052
310
0069007300720002000000FFFEFF06520069007300650072007300000000000000FFFEFF052D00530069006C006C0002000000FFFEFF05530069006C006C0073000000000000000180FFFEFF06530074006100740075007300060000000000000000A434770470040000B10000005073770400000000050000FFFEFF000F00
310
FFFEFF022D00540002000000FFFEFF0E540065006D0070006F007200610072007900200077006F0072006B00000000000000FFFEFF022D00450002000000FFFEFF124500780069007300740069006E006700200074006F002000720065006D00610069006E00000000000000FFFEFF022D00380002000000FFFEFF07500068
310
0061007300650020003800000000000000FFFEFF022D00390002000000FFFEFF075000680061007300650020003900000000000000FFFEFF022D00360002000000FFFEFF075000680061007300650020003600000000000000FFFEFF022D00370002000000FFFEFF075000680061007300650020003700000000000000FFFE
310
FF022D004E0002000000FFFEFF084E0065007700200077006F0072006B00000000000000FFFEFF022D00340002000000FFFEFF075000680061007300650020003400000000000000FFFEFF022D00350002000000FFFEFF075000680061007300650020003500000000000000FFFEFF022D00320002000000FFFEFF07500068
310
0061007300650020003200000000000000FFFEFF022D004D0002000000FFFEFF114900740065006D007300200074006F0020006200650020006D006F00760065006400000000000000FFFEFF022D00330002000000FFFEFF075000680061007300650020003300000000000000FFFEFF022D00310002000000FFFEFF075000
310
680061007300650020003100000000000000FFFEFF022D00460002000000FFFEFF0B460075007400750072006500200077006F0072006B00000000000000FFFEFF022D00440002000000FFFEFF144500780069007300740069006E006700200074006F002000640065006D006F006C006900730068000000000000000600FF
310
FF04001A004163416563556B4C61796572436F6D706F6E656E744669656C64FFFEFF174400690073006300690070006C0069006E0065002000440065007300690067006E00610074006F0072002000310001000000FFFEFF0440002C0040004000000000000100000000FFFEFF014100000000000780FFFEFF174400690073
310
006300690070006C0069006E0065002000440065007300690067006E00610074006F0072002000320001000000FFFEFF0440002C0040004000010000000100000000FFFEFF014400000000000780FFFEFF054D0061006A006F00720005000000FFFEFF052D00400040004000400000000000010000002DFFFEFF052D005700
310
61006C006C00000000000780FFFEFF064D0069006E006F007200310005000000FFFEFF022D002A0001000000010000002DFFFEFF052D004900640065006E00000000000780FFFEFF064D0069006E006F007200320005000000FFFEFF022D002A0001000000010000002DFFFEFF052D005400650078007400000000000780FF
310
FEFF0653007400610074007500730002000000FFFEFF022D002A0001000000010000002DFFFEFF022D004E0000000000050000010203040500FFFEFF00FFFEFF0320002D002000FFFEFF022C002000FFFEFF012000FFFEFF0320002D002000FFFEFF00
  0
XRECORD
  5
AE7F0
102
{ACAD_REACTORS
330
A21DF
102
}
330
A21DF
100
AcDbXrecord
280
     1
102
DISPLAYNAME
  1
Imperial24
102
FLAGS
 90
        0
  0
XRECORD
  5
AE7EF
102
{ACAD_REACTORS
330
A21DD
102
}
330
A21DD
100
AcDbXrecord
280
     1
102
DISPLAYNAME
  1
Imperial24
102
FLAGS
 90
        0
  0
CELLSTYLEMAP
  5
AE7EE
102
{ACAD_REACTORS
330
B4E
102
}
330
B4E
100
AcDbCellStyleMap
 90
        3
300
CELLSTYLE
  1
TABLEFORMAT_BEGIN
 90
        5
170
     1
 91
        0
 92
    32768
 62
   257
 93
        1
300
CONTENTFORMAT
  1
CONTENTFORMAT_BEGIN
 90
        0
 91
        0
 92
      512
 93
        0
300

 40
0.0
140
1.0
 94
        5
 62
     0
340
11
144
0.25
309
CONTENTFORMAT_END
171
     1
301
MARGIN
  1
CELLMARGIN_BEGIN
 40
0.06
 40
0.06
 40
0.06
 40
0.06
 40
0.18
 40
0.18
309
CELLMARGIN_END
 94
        6
 95
        1
302
GRIDFORMAT
  1
GRIDFORMAT_BEGIN
 90
        0
 91
        1
 62
     0
 92
       -2
340
0
 93
        0
 40
0.045
309
GRIDFORMAT_END
 95
        2
302
GRIDFORMAT
  1
GRIDFORMAT_BEGIN
 90
        0
 91
        1
 62
     0
 92
       -2
340
0
 93
        0
 40
0.045
309
GRIDFORMAT_END
 95
        4
302
GRIDFORMAT
  1
GRIDFORMAT_BEGIN
 90
        0
 91
        1
 62
     0
 92
       -2
340
0
 93
        0
 40
0.045
309
GRIDFORMAT_END
 95
        8
302
GRIDFORMAT
  1
GRIDFORMAT_BEGIN
 90
        0
 91
        1
 62
     0
 92
       -2
340
0
 93
        0
 40
0.045
309
GRIDFORMAT_END
 95
       16
302
GRIDFORMAT
  1
GRIDFORMAT_BEGIN
 90
        0
 91
        1
 62
     0
 92
       -2
340
0
 93
        0
 40
0.045
309
GRIDFORMAT_END
 95
       32
302
GRIDFORMAT
  1
GRIDFORMAT_BEGIN
 90
        0
 91
        1
 62
     0
 92
       -2
340
0
 93
        0
 40
0.045
309
GRIDFORMAT_END
309
TABLEFORMAT_END
  1
CELLSTYLE_BEGIN
 90
        1
 91
        1
300
_TITLE
309
CELLSTYLE_END
300
CELLSTYLE
  1
TABLEFORMAT_BEGIN
 90
        5
170
     1
 91
        0
 92
        0
 62
   257
 93
        1
300
CONTENTFORMAT
  1
CONTENTFORMAT_BEGIN
 90
        0
 91
        0
 92
      512
 93
        0
300

 40
0.0
140
1.0
 94
        5
 62
     0
340
11
144
0.18
309
CONTENTFORMAT_END
171
     1
301
MARGIN
  1
CELLMARGIN_BEGIN
 40
0.06
 40
0.06
 40
0.06
 40
0.06
 40
0.18
 40
0.18
309
CELLMARGIN_END
 94
        6
 95
        1
302
GRIDFORMAT
  1
GRIDFORMAT_BEGIN
 90
        0
 91
        1
 62
     0
 92
       -2
340
0
 93
        0
 40
0.045
309
GRIDFORMAT_END
 95
        2
302
GRIDFORMAT
  1
GRIDFORMAT_BEGIN
 90
        0
 91
        1
 62
     0
 92
       -2
340
0
 93
        0
 40
0.045
309
GRIDFORMAT_END
 95
        4
302
GRIDFORMAT
  1
GRIDFORMAT_BEGIN
 90
        0
 91
        1
 62
     0
 92
       -2
340
0
 93
        0
 40
0.045
309
GRIDFORMAT_END
 95
        8
302
GRIDFORMAT
  1
GRIDFORMAT_BEGIN
 90
        0
 91
        1
 62
     0
 92
       -2
340
0
 93
        0
 40
0.045
309
GRIDFORMAT_END
 95
       16
302
GRIDFORMAT
  1
GRIDFORMAT_BEGIN
 90
        0
 91
        1
 62
     0
 92
       -2
340
0
 93
        0
 40
0.045
309
GRIDFORMAT_END
 95
       32
302
GRIDFORMAT
  1
GRIDFORMAT_BEGIN
 90
        0
 91
        1
 62
     0
 92
       -2
340
0
 93
        0
 40
0.045
309
GRIDFORMAT_END
309
TABLEFORMAT_END
  1
CELLSTYLE_BEGIN
 90
        2
 91
        1
300
_HEADER
309
CELLSTYLE_END
300
CELLSTYLE
  1
TABLEFORMAT_BEGIN
 90
        5
170
     1
 91
        0
 92
        0
 62
   257
 93
        1
300
CONTENTFORMAT
  1
CONTENTFORMAT_BEGIN
 90
        0
 91
        0
 92
      512
 93
        0
300

 40
0.0
140
1.0
 94
        2
 62
     0
340
11
144
0.18
309
CONTENTFORMAT_END
171
     1
301
MARGIN
  1
CELLMARGIN_BEGIN
 40
0.06
 40
0.06
 40
0.06
 40
0.06
 40
0.18
 40
0.18
309
CELLMARGIN_END
 94
        6
 95
        1
302
GRIDFORMAT
  1
GRIDFORMAT_BEGIN
 90
        0
 91
        1
 62
     0
 92
       -2
340
0
 93
        0
 40
0.045
309
GRIDFORMAT_END
 95
        2
302
GRIDFORMAT
  1
GRIDFORMAT_BEGIN
 90
        0
 91
        1
 62
     0
 92
       -2
340
0
 93
        0
 40
0.045
309
GRIDFORMAT_END
 95
        4
302
GRIDFORMAT
  1
GRIDFORMAT_BEGIN
 90
        0
 91
        1
 62
     0
 92
       -2
340
0
 93
        0
 40
0.045
309
GRIDFORMAT_END
 95
        8
302
GRIDFORMAT
  1
GRIDFORMAT_BEGIN
 90
        0
 91
        1
 62
     0
 92
       -2
340
0
 93
        0
 40
0.045
309
GRIDFORMAT_END
 95
       16
302
GRIDFORMAT
  1
GRIDFORMAT_BEGIN
 90
        0
 91
        1
 62
     0
 92
       -2
340
0
 93
        0
 40
0.045
309
GRIDFORMAT_END
 95
       32
302
GRIDFORMAT
  1
GRIDFORMAT_BEGIN
 90
        0
 91
        1
 62
     0
 92
       -2
340
0
 93
        0
 40
0.045
309
GRIDFORMAT_END
309
TABLEFORMAT_END
  1
CELLSTYLE_BEGIN
 90
        3
 91
        2
300
_DATA
309
CELLSTYLE_END
  0
ENDSEC
  0
SECTION
  2
ACDSDATA
 70
     2
 71
     8
  0
ACDSSCHEMA
 90
        0
  1
AcDb_Thumbnail_Schema
  2
AcDbDs::ID
280
    10
 91
        8
  2
Thumbnail_Data
280
    15
 91
        0
101
ACDSRECORD
 95
        0
 90
        1
  2
AcDbDs::TreatedAsObjectData
280
     1
291
     1
101
ACDSRECORD
 95
        0
 90
        2
  2
AcDbDs::Legacy
280
     1
291
     1
101
ACDSRECORD
  1
AcDbDs::ID
 90
        3
  2
AcDs:Indexable
280
     1
291
     1
101
ACDSRECORD
  1
AcDbDs::ID
 90
        4
  2
AcDbDs::HandleAttribute
280
     7
282
     1
  0
ACDSSCHEMA
 90
        1
  1
AcDbDs::TreatedAsObjectDataSchema
  2
AcDbDs::TreatedAsObjectData
280
     1
 91
        0
  0
ACDSSCHEMA
 90
        2
  1
AcDbDs::LegacySchema
  2
AcDbDs::Legacy
280
     1
 91
        0
  0
ACDSSCHEMA
 90
        3
  1
AcDbDs::IndexedPropertySchema
  2
AcDs:Indexable
280
     1
 91
        0
  0
ACDSSCHEMA
 90
        4
  1
AcDbDs::HandleAttributeSchema
  2
AcDbDs::HandleAttribute
280
     7
 91
        1
284
     1
  0
ACDSRECORD
 90
        0
  2
AcDbDs::ID
280
    10
320
A21A1
  2
Thumbnail_Data
280
    15
 94
     3850
310
89504E470D0A1A0A0000000D49484452000000C500000100080300000034B4427100000300504C5445FFFFFF000000C8C8C80000000000000000000000000000000000000000000000000000330000660000990000CC0000FF0033000033330033660033990033CC0033FF0066000066330066660066990066CC0066FF0099
310
000099330099660099990099CC0099FF00CC0000CC3300CC6600CC9900CCCC00CCFF00FF0000FF3300FF6600FF9900FFCC00FFFF3300003300333300663300993300CC3300FF3333003333333333663333993333CC3333FF3366003366333366663366993366CC3366FF3399003399333399663399993399CC3399FF33CC00
310
33CC3333CC6633CC9933CCCC33CCFF33FF0033FF3333FF6633FF9933FFCC33FFFF6600006600336600666600996600CC6600FF6633006633336633666633996633CC6633FF6666006666336666666666996666CC6666FF6699006699336699666699996699CC6699FF66CC0066CC3366CC6666CC9966CCCC66CCFF66FF0066
310
FF3366FF6666FF9966FFCC66FFFF9900009900339900669900999900CC9900FF9933009933339933669933999933CC9933FF9966009966339966669966999966CC9966FF9999009999339999669999999999CC9999FF99CC0099CC3399CC6699CC9999CCCC99CCFF99FF0099FF3399FF6699FF9999FFCC99FFFFCC0000CC00
310
33CC0066CC0099CC00CCCC00FFCC3300CC3333CC3366CC3399CC33CCCC33FFCC6600CC6633CC6666CC6699CC66CCCC66FFCC9900CC9933CC9966CC9999CC99CCCC99FFCCCC00CCCC33CCCC66CCCC99CCCCCCCCCCFFCCFF00CCFF33CCFF66CCFF99CCFFCCCCFFFFFF0000FF0033FF0066FF0099FF00CCFF00FFFF3300FF3333
310
FF3366FF3399FF33CCFF33FFFF6600FF6633FF6666FF6699FF66CCFF66FFFF9900FF9933FF9966FF9999FF99CCFF99FFFFCC00FFCC33FFCC66FFCC99FFCCCCFFCCFFFFFF00FFFF33FFFF66FFFF99FFFFCCFFFFFF0000000D0D0D1A1A1A2828283535354343435050505D5D5D6B6B6B787878868686939393A1A1A1AEAEAEBB
310
BBBBC9C9C9D6D6D6E4E4E4F1F1F1FFFFFF000000000000000000000000000000000000000000000000000000000000B0E2D235000006DC4944415478DAED9D4B72E4200C867522DD7FA593B09A652A8B1C61DC7E608431AF46805DA2662A4977D2ADAFF500CBF837FCBE61C0EFCF0B06FCC21B865228855228855228855228
310
855228C53B28FE3D76308AA73A4129944229944229944229DE4E41EE686C8DE1438662351CBD471E46B112E0F2EFF2F07328565B3F1481806AC6214DB1D9F94100F242ACA1434CE128A3B0A6D22D2050336F08D5288A7FDA873FD2EF869F71B1DBFB21D7018514E49B783586F2D2E3935718FBF0CD874382823C88C38ECFD7
310
D324CA8A2ADCFFFB668B5390FB217B3E40C7A6AD865109C56613A72848E9020AE6080C45BAF3AB98F28643B19BE31B2692DD3C9AF02E63AD3B308EB153B8A6D6995D44714220DE40308F2C937B34C5F174022B4AE214643300539FF21655518A05219ADD121407441C8051D07D6AECB113CD6E81BCB010900BE1BAEF829093
310
DD7CD66B498139AF83B753A49B0A96E22EBBF97CD182A204E2AC54170AD79A8DE2FAE1CB5114C413F3871B52BE29E8972888CE7AED28B020C93846C08CA54625B2BBAEECDE521C9151426131288400BC4685E7EEB695962A5C71FC3A85FCB03E72D628FBBCE8DC4D888559716250A84AB11AE59628C9B9BB3CB76F129C25C8
310
51A35C3F48E605610D0542A84CF9EBA8B33E5D57206DE7EE3A0AF0E70CCFA48F1FD085B8CCDDA1A3A46A0A67315BE98C609D3A32DC42641DB1D653E0B1362D75C6E18DC0BB6F7E400691D3CAF9C617B9ABD9A03BD6B7A6A01F300211C6F892A282613F88B83445365BCED560DB2E759CE2F6CFFE2280C66952114F723B5F40
310
278A18C4C2F0F78739871A2BC71913C7713774A1482C3F1686BF6C0C63787B1A4D738838C51DC6420139148B23DC838BADEE9954A3B639C50D46AE2F763F700A4C315470D4FA62F106DE4F185BF41CE6781115A5C8E870064A702CBB238911E87D3B931EAD4F073E531C4181193D8FF00A64091E93D56DCE99BBBFA088CF17
310
0938BA73557249D3744D5B77A4175C9A975108CCDDB514742E268752241323D93F9884A22A3100F9BA7E6C5E5487D4D63EA8A6A83CE1DDB87BB04E180B04D452F0F9A24557AD1863AFAFF7A1388CA2B84F7B5F6773F3A22D455DB739029153A3DAF6696B420A1B5034ADB4E91561A44B4B30134569B145089F4B1A496131F2
310
4E896DA792E3FB5A465014A5C6BE5125EA8A511448656759E31063286CA06322AA6E4F4D4E4141E76202E3C6E1D9809A8E624D5A4A756CD19D287376B374A780739F8DC3E1EF92CA0AA7A114781A678DC7AD246DE980D910E32878A0EC96DB6D46E796831C88D114C19D834E1148A7843BA98CA080D4C6DFBC9D8FD16E5C07
310
8A73C76C00C43E050347FE3E7366B4FD81F21D310305387BE38FB15D0220701D861C4520A0D64B0010C68FC26B61D8053084E3BD5045C1420AE64000BD464C2994422994422994422994422994422994422994622E0A3935906E149F561A71A0875174D00311A7B07A2020A807224D71EA8190A01E882C453F3D10418A7E7A
310
2082141DF540C428BAEA814851F4D50311A228D20349096964E8818850BC420FC4D9C929A407F289A60EAA26AA0712ACA9BDB3BB4034A0951E880C456F3D90F61423F4409A537CA10762318AF540A42804F540403EBBEBF54008B2F440B6407AB61E884D8607EB81B8621A4FD503B98A14C9F9424A0F04BDB9623E8A8B2F2E
310
7A20DC0FC2D9FDB51E08054B2DABB4463CBBBFD4035928C2A5162EAA26923D902FF54016060A31049497E429EAF540AE174FF235ED13F440087D0A5F3F0A3A517CA307B24DFC746D9C3D4B0F84DCD31CAE20083C490F64FF632E7A95A707224051AB076229D8C49DA107D29D22AA07B2469461E232597A2002D91D4B8CB81E
310
C87E8891E87076A2A8D503592B6D951E48DFF9220137890685EA81CCA307F2950485EA81881C77F7D60399A37BF0AD1E8840576D801E881445673D90F61443F440DA52BC440FA49642F54004285EA2075294E073EB81E456DBB9F540C899CE52D3DDAC7A2090D5AF9D5D0F84DEA107E26C17523D90E1146C4BA0EA8180EA81
310
7C4FA17A209351A81EC85414A07A20D351CC379442299442299442299442299442299442299442299442299442299442293C8A36976F8DA538001EC17147E15D82FD540A60DFDB1B7BEDB72BB39A05EC67EF5B706E07E6DC1BCCFE5DF1EDC24A29F80B9B1B0A661AFBEA5178BF0A97C74428BC97F528CC7328F6F7DA2E5D86
310
80692604028E61CCC851BE30B0C78F6B0330633756D72C60CFB946FAEEE89017E628B50113661A1979616C9535CEA5BFA3CA6EC51D7E3D5F98EB8B3C81625312B2796142B71865F5079C509F88C23835CA98D05D2D2F14663A8ACB0A248F0226A370B42E0A5E76D42A38B93237D91FCE1E867A94A4144AA1144AA1144AA114
310
65148F1D2EC5D3875228855228855228855228855228C5E3297E5E30E0F70DE33F6F1C2CEBC07559D10000000049454E44AE4260820D607B41102B7FA9DA55BDB3BA630D1507FB7BBD6CC2FB324247B5C1D63E411D00C5E44BF227ACE724BAA77D5AF686E10F8333C10BE4CBE6FA2F98388E04190071731EE41B51991E907A
310
DF9A5A536AA5B89E15A613174E8E0040D11FBF55A6187E52C69DE45D7BA8C186262444687E5AFCC070E16DED425D402F8DC15E6DB01D08F15B1311E63896A2C642A1D0B53DA4B629282D83722FA85353606A6D509C2FB2783EBC0D880A7BBF4D86EABE4E8A29200E4A39FC5C283C5E1B3CB89556BEE7188AB3C7B82D82DD98
310
2C19F9A26F5C976857610AD1C9EAF0C40D12A53D24691D418CB94B6B3CCAB7731356914A87B9790CD2A7DDEF6F91915E4BBA01BF6152D56EAA3C9CE3210F0B008AF79716E5D44553CDEB06DBB5C19DFD011FE305C46A508F04B50879FF9AA1A0D1327123767CC1ACC55029BB98133CB14FB03D0578FA06797E07AABD61E773
310
82B5EC5A5A5CD9130BBA743900506A00291A30BD5D01106E0FE5B7A38BEB185C7A0E8BB8BCA1CB0D6E43886CB8E21EA829394179C0C540688955B1747D56CC8440DE25912F5A04D7E106C5DC44BEF3BBDA217CDD1A38A100676FA6E6CD7BB82803B6AB3660BB5603B68B398E35405CE987F2B23FB8A75DCA099E68FB1A0007
310
5270D31B5CD1803F0000E09411A42B00686F0A7C08800B5380A8D70628F3F44E233076D1D4F9C8F4507BD4EB3FD976E0A95EE0A41BA4220BD5C844A88B8F43FBD1E7BE7F350E702215911764EA9A9B4859840F6AC08DED744E90787AA95000DACD4374DC5BBC33849FB016385B1720D2C736FE1EAA56F7328D756840BB1671
310
975783E701BCE30B16EE05A0FDC6A77DC5C648B7958544D5EB764EF0A100EAD32D0DCDCE684A0BD5D7EC4B560C40AF11340036050C8001F87200BFFA75590F3082DB17637CEC978E5D02906E038C5F08E087017006E0EFB49300F29D609F3BACF76AC0F6FD281F09A038E17123E8BE1580ABFBF95D53E030AF6BA1B0013000
310
9610310036050C8001300066040D804D010360000C801941036053C0001800036046D000D814300006C0009811FC78007FB8F54D81F5B8BFFAD8A3015FD40C80013000FFFCC337B7AF07F01F24815A07B56B875D0000000049454E44AE426082825D27B6698EA6A33FD309667604A527C107484B5097869208FAFD1A40FC05
310
1AA0479536C6261521DF0E280EFEE02890DF231D558442476C67F0872642350DF0D7CCC7CDD1E4E49333C11A00E308A512F68D00A0EC04D5BD45CDED53884A9EF28301E0DE9154B2A869E08739416C285B1D1B38017C9A099C07809F0D00CF02C00FD7807627885FE204377D81521E100B59C8153EBE2214E502C74FE02B00
310
F0EEB27077C9F8D91521682A0CE456FFCFAB079F03D0A901003FAE015F04003A34E0630114CAE232AF75E7FFA422E04000991AD1E633001EABFA034CE03B8E09600298000638C109609AC00F01784E67FB2D00E4633F7E15C0FE86E7A65B01D20702F0A3A28FC4F1772EDFDF37123E56231D094FD82F7210809EC882200500
310
99C720FAE5234C80DCE7E3D1FEC77855C44F9E79AF5B3D0EC0DDF79EBEE0E801A06E09A73E20E7538242669B5ABF06242E2C51EF6732E905106D97878C110064FCFB9702083F7F0840940952FEE36B9EBA13F4B6B5C0EF0098CBE159109900A6094C0013C004309DE004304D600298002680E9047F05C0171F6D26B08EFBD6
310
EF2D1AF043C70430014C00FFCCB75F3E7E1EC07F00B2ABBE77F7E7980000000049454E44AE426082
  0
ACDSRECORD
 90
        0
  2
AcDbDs::ID
280
    10
320
A21B9
  2
Thumbnail_Data
280
    15
 94
     3729
310
89504E470D0A1A0A0000000D49484452000000B40000010008030000002D3FACD700000300504C5445FFFFFF000000C8C8C80000000000000000000000000000000000000000000000000000330000660000990000CC0000FF0033000033330033660033990033CC0033FF0066000066330066660066990066CC0066FF0099
310
000099330099660099990099CC0099FF00CC0000CC3300CC6600CC9900CCCC00CCFF00FF0000FF3300FF6600FF9900FFCC00FFFF3300003300333300663300993300CC3300FF3333003333333333663333993333CC3333FF3366003366333366663366993366CC3366FF3399003399333399663399993399CC3399FF33CC00
310
33CC3333CC6633CC9933CCCC33CCFF33FF0033FF3333FF6633FF9933FFCC33FFFF6600006600336600666600996600CC6600FF6633006633336633666633996633CC6633FF6666006666336666666666996666CC6666FF6699006699336699666699996699CC6699FF66CC0066CC3366CC6666CC9966CCCC66CCFF66FF0066
310
FF3366FF6666FF9966FFCC66FFFF9900009900339900669900999900CC9900FF9933009933339933669933999933CC9933FF9966009966339966669966999966CC9966FF9999009999339999669999999999CC9999FF99CC0099CC3399CC6699CC9999CCCC99CCFF99FF0099FF3399FF6699FF9999FFCC99FFFFCC0000CC00
310
33CC0066CC0099CC00CCCC00FFCC3300CC3333CC3366CC3399CC33CCCC33FFCC6600CC6633CC6666CC6699CC66CCCC66FFCC9900CC9933CC9966CC9999CC99CCCC99FFCCCC00CCCC33CCCC66CCCC99CCCCCCCCCCFFCCFF00CCFF33CCFF66CCFF99CCFFCCCCFFFFFF0000FF0033FF0066FF0099FF00CCFF00FFFF3300FF3333
310
FF3366FF3399FF33CCFF33FFFF6600FF6633FF6666FF6699FF66CCFF66FFFF9900FF9933FF9966FF9999FF99CCFF99FFFFCC00FFCC33FFCC66FFCC99FFCCCCFFCCFFFFFF00FFFF33FFFF66FFFF99FFFFCCFFFFFF0000000D0D0D1A1A1A2828283535354343435050505D5D5D6B6B6B787878868686939393A1A1A1AEAEAEBB
310
BBBBC9C9C9D6D6D6E4E4E4F1F1F1FFFFFF000000000000000000000000000000000000000000000000000000000000B0E2D2350000076E4944415478DAED9D49721B310C457122DC7FC59370A565CA0B1F2152379B33C109EC410653A9B2622B7A863E4012CDAF869F070EF8F9F9F7B8F18686E70D81166881166881166881
310
1668816E817E3D67F8D04F89F14EFA5C68106891470C0D022DF290EA21F290EA21F29044FCFEEAA1DCE065D0C1604BC48D14A3C7B786DE813F7FE27FBF0CBA2A8F0DED8DAC82C1893D039D4DC49D6BC75461F8D9B075D7A8425B3245FC3E0D58A9B6526CAEEA115321620EBBCE8CF13321A0D4F570B727A20A9130E5DEB0AB
310
C1C6F8691F080F447F1EF0406F32562EC668E3B6FFF5DF8D1A3484FAD82983875D912ECAC30F73F4AA1BB6F7BB21AA76E89D2184D6C3D0612206D2C00249564514B479F9044477959B127408826476BDE71E24A90DB4C7D9592EDAAA87630EA490213F7E9C520826E5224C44A64D809D4A82A42B8BE4B3302953E39B98D274
310
EF6F90873E028D08F5BA5091B55102FA744922C2FCE462995BE63A92DA018712D1915A18D61EAA99195C36A6D496008D444AF3B611CC14B4797D6C7DB7304C83749EC658B4549D1E944747A0836474D4D16B7F1E9289D8BB604A13B143D149A8F75AA623956092887AAA50E7A1FB988F2AA32065D91E5BE84222CE4F2E47C9
310
C5AEFF075355BB9863A2EBA84C4FB7109499DCB097394DC5601A0F17D053D409F4B18EE8670EAA5EF0F6C751CEAEF266E4A17020D03175848041F54813B1BA16AD25A2BFEAE885DEA99357F4A771135F62721981C66345DF196A13EBF7CB25F3A2BF09D0ADDBF13E79984607F666075A59A85C94915AEC8F436F51DFD5D18F
310
7C2C2EC20D7C58F260A6CC3540530BA462EFC26D74A374B4ABBC455D531A1AF1F7176B8B54136C8BAC4C9D66634E12919EC3F1178AD418F41E36A9F89D3FD46CCC7DD0EF38FFBEB1B1021DD669538E74A52D362F8F02F5064D455A592DBB06B6814692B9BD0B594EC4B23C0AD06603A37C2D47F2A8F51F9741E75A89FE34FE
310
FE66EE9DC606E8C148BF5A4A1E3D8BAB7C838C1D1A7233E220B45DD67642772762167A90BA10E83AF4ECCE654C1F76178027430307F458A4C7EBB4DD6E0DAB5A15BA90D852A7E736B623FBDAFCC676B07A0CB410C839916E21208E43030B7477B3669B0FCF89F4ABD4AC99698B9D9E8803FAC059E8E966CD402A62A5AFBE7C
310
7219A97A4833F3434311BA6D7B7B5C4852C4459753A07B646D2E2193D7124F9107D80BCCD89E84D4D5AD1312D1EFF7D212212EB85C01ED56C648C26003F349F2D863AD2A0DB2868B886726E2D163511061E308F399D0E81FF7F0447C6C6EB195F93C791C38CAEF11B857772710EACC6725A2A30645351F9B4E03A5C7815642
310
1F4794F258E6DC5BC369B152B764853C5C0F3445E33C97C7988809B677F05129B74ABA25B48DAA45DF340A785198A1F92872C4870B0E24B32562947676205C3AC4E772A74414E8BF2B0FF1B9883CA47A883CA47A883C2411A57A48224AF5785C22A6CECF7B43A75BF04BB91BE4B1DC18BC2011D71B83D9A17D6370461ED7A8
310
849607D91A55DE59587A30777AEB1E5B166330D0C66076681E633090C66046792C320667FD885C89B8C418ACB37E4436E805C6E0D51EDB8899C3181CBA975724A26F0CA6CA55AB3138F1FA2D30067BCCF5C2B03D8132065BA7DC82449C3206170FD6E8C89CB32C110FBF6A8731387F1CC8A8A2660CE6826E3D78E524AF8ABE
310
E0AA3198431E4CC6E0E00748633047228E19838B6EC40663F03C746FA02F3006E78E228F1983155C600C066B0C1EB47EF61883E12F1B835FB3C660BFEA751983A71371D218AC927A077563F03CF48431581DD918CF32101B8381777279077AD8189C236E31064F27E28C31582556E64663F024F49C31D8BE4D610159680C6E
310
71C921690C5618EC16D71983A107FA63A2C4B2F353EDB611157899D5CD8DC1CAF583DFEAB6079EF88DC1DD1E5BC2187C941DEC3506B324E28031182DB40A636A9213D743F71B838FC9C517867F226EE559D30663F06F6545DD6F0C5E5B3DAA8D84316330C3DA63CE637B0AF48B191ACE850631069F2A8F2B8CC1F32D840B8C
310
C16CD0671A83B9E401671A83191A9017188319BAA66AC8187CB1C776D8187C038FAD18834FF2D836CAFA62633004D0D86B0C560F3406DFC063AB3CB32A09738D3118B2D0DF650CC67422BCC0185CFE4C75CF70E88CC1701883D1F3055F680C862E6330B433DFCB18ACD4E5C6E057B73118E022633050D05F630C3EBEB8D218
310
DC70143934061B8DDEC4180C5F6E0CBEF6F8B4F85C04FAFBE4213E179187540F9187540F918724A2540F4944A91E9288523D2411055AAAC72DA0B5D60F93C74E7C67EE4C223A4FE963A0A31B3DDB8FC137F74F86E04697F6EBE0E6CAFE0F249FA6EFBECD288FC4CD5686D601B46E85EEB951665B2246CE2B0ADA07009F16A8
310
5BC8F4DD92B4197A27041DDC053CE0D789188287F9B07346FA9546DAF3E715A175029D09332D0FBE44D487AEDD2D016F360AD09EAB5B3BE7A0BEEFE472CC2BDE8716C4BF672C8EFEDB5F368FC6BB41D9E27B68A40EAD674D6FD3D05BE1003B73C4CF831CB43E1D3A597B8433E2DDA1E3B5876EBFD7E53251B7EF5C2A1009EC
310
D9CCB2731168E97B08B4540F81167948F510797C7FF578CE709A7ED810688116688116688116688116E82AF4BFC78D37F4F3C67F28DD8C3C7B06D1810000000049454E44AE426082883D348804476748BACB009817147DEDE3A4222E5BA5F779317C1AFD917C952B932D326A111007E2C3B4F8BEE3F24F6CA6B5C1FD132777
310
6681A6CFB3CD0653F718364B29C39D0B69641623913C727E3174E1C4C9DD21C07DB6AFA1CBF6164C1B7D0A1476912EEA546F5151377368A45E72E224C1C169A1D9FD7BA98C07640EBDA0C8015FDBD9D22EF815CD686C7B6600AEED1069BE9B974F991314DD4F890211D39A54BB27206DFEA43B95A1F37B84000E4F0CA67EAD
310
B2EDF71904426DF823CC830513D4DB45FB599792A2A76B833B85912F9A05E8726D90C6009A458B17EB99744280C962A83B74272BAC9F38D9950CA796C36F0270672D30BC8E90723AE54424D8A62EC5967034EBF0E6D09D2D32C1E1613D3B233C80FC588A67A641F17D3DDFF0C6B6CD1B03B81E08055B77F1A400763267490D
310
D593D6D2D0989905582AC7B3540EC61DCF3639C1E6D0BDCA50BE725C392B03E5F93A4C3C6101E2C4402FCF12C467B5EBA1F085B66F0183931B956BD55836BC1C0A9B0380770040BC1C085D03407B16805F01E0D610209AF501CA287DAE133875D698E975859B254B7FF62736DB9E0DA7C12B39416AD6EF4407AB9B66197A16
310
8075E4CB0F5D9D06A14EAE345A9F0D9231470066BEB91D918B3941E210404BBDD260A54FC753C844046310FE2819E553434051934A34DFA61DD8DA7C6A0E7D91055C05F0925F98783600B89E137C513BA394F296FE5DC77FF2037F6485864FF4894C4BB0EED4483E1FC06BDB02B0002C000BC002B0001C0378F7CF85BD1B40
310
BAC00BF8EFFED5B5CB00D825E17F1400FC3A807C19ECBFD54E02F0E59752FCE7FE76DAD38640BE0CF8A074FF3D0AB75FFA940530B5E1B70040D65FFFA46F8E10A623C14ECB5F03B0D6020BC002B0002C000BC002B0002C000BC002B0002C000BC002B0002C000BC002F02B00FE789B02F0976F0F01FC565B00168007807F7F
310
B805003FDEFE07B17E679F536868E70000000049454E44AE426082661A7001805B6BC0CEC5B702B8B9095C00E0DE26D0EE04E1179DA09CCCE6895049C8AFCD7FCE55847612A1BC931FF81500C7F3E22F9F059FAC093694860A9D5F3281210DF81D006608C00F6940F0EAD450234A8520F35B00D26A50B1DC23A380912B473F
310
04A0901918F3C5DEEE9300EEDC5E002F8017C00BE005F0026805F05D4BFBF301885F068097B69B0090DB3D9F0840FD2A806702C0F8F7B100F25F7AF7341388BF24077FA10D01E05F14A87F77C3F7EE8253AD74892326F054006C00B9CCE63100E273A070FF9B6F952D8EA4C2681E0BE09D0DBE005E002F8017C00BE005F030
310
003FDE9A00FCF2EB218067B517C00B6005F0EF839B03F0F0F63FEDCCEBD40856F12E0000000049454E44AE426082
  0
ACDSRECORD
 90
        0
  2
AcDbDs::ID
280
    10
320
22
  2
Thumbnail_Data
280
    15
 94
     3312
310
89504E470D0A1A0A0000000D49484452000001000000007B0803000000AC3EAEE200000300504C5445212830000000C8C8C80000000000000000000000000000000000000000000000000000330000660000990000CC0000FF0033000033330033660033990033CC0033FF0066000066330066660066990066CC0066FF0099
310
000099330099660099990099CC0099FF00CC0000CC3300CC6600CC9900CCCC00CCFF00FF0000FF3300FF6600FF9900FFCC00FFFF3300003300333300663300993300CC3300FF3333003333333333663333993333CC3333FF3366003366333366663366993366CC3366FF3399003399333399663399993399CC3399FF33CC00
310
33CC3333CC6633CC9933CCCC33CCFF33FF0033FF3333FF6633FF9933FFCC33FFFF6600006600336600666600996600CC6600FF6633006633336633666633996633CC6633FF6666006666336666666666996666CC6666FF6699006699336699666699996699CC6699FF66CC0066CC3366CC6666CC9966CCCC66CCFF66FF0066
310
FF3366FF6666FF9966FFCC66FFFF9900009900339900669900999900CC9900FF9933009933339933669933999933CC9933FF9966009966339966669966999966CC9966FF9999009999339999669999999999CC9999FF99CC0099CC3399CC6699CC9999CCCC99CCFF99FF0099FF3399FF6699FF9999FFCC99FFFFCC0000CC00
310
33CC0066CC0099CC00CCCC00FFCC3300CC3333CC3366CC3399CC33CCCC33FFCC6600CC6633CC6666CC6699CC66CCCC66FFCC9900CC9933CC9966CC9999CC99CCCC99FFCCCC00CCCC33CCCC66CCCC99CCCCCCCCCCFFCCFF00CCFF33CCFF66CCFF99CCFFCCCCFFFFFF0000FF0033FF0066FF0099FF00CCFF00FFFF3300FF3333
310
FF3366FF3399FF33CCFF33FFFF6600FF6633FF6666FF6699FF66CCFF66FFFF9900FF9933FF9966FF9999FF99CCFF99FFFFCC00FFCC33FFCC66FFCC99FFCCCCFFCCFFFFFF00FFFF33FFFF66FFFF99FFFFCCFFFFFF0000000D0D0D1A1A1A2828283535354343435050505D5D5D6B6B6B787878868686939393A1A1A1AEAEAEBB
310
BBBBC9C9C9D6D6D6E4E4E4F1F1F1FFFFFF000000000000000000000000000000000000000000000000000000000000B21171F6000001444944415478DAEDDA416E83301005509FD107F649384C6D0C8110DA6E2A55E2BFB7CC6E7E06EC19510A0000000000F0875AAD6D78FF75397978FD5D1D19D42D82BA165F9E5EF7517F
310
AFBE57DD23A8FB5F5F8202685BD92382F114F4B2B33AE008A027B03EEEFB739F11C0ECFFA305B6FE0F0A6036C04CA177C088A08D36989D9016C078065A5BF67330EC15D0039877817ABD083CFD2570BC03EA7B0071A7C07619CC0AE068817A09206812985ED340580073166847FD7101ECE390B118C874BF124B3B036A3BDF
310
0396946B60B959898DA9382880CF95D8B612C90BE0BA12CB9904CAA905B65D585000D79558AFBD8E044A6400EB46B0059D009F3BC1BC69F0FB9558E02910B9116AAF04E25762257B25D6ACC462A74180604BD4E87357FFDB0781215F065E1A60F9D5B303F8B1CE807658520A0500000000000000000000000000FEDB175590
310
466830F929110000000049454E44AE426082D9E391D77F59024D023F1E086D0CBFEBBFB9C3F24EC4767B3C49FCA30CBC3D1E5C80D31D7E6E95658F472F01BBD8E3A3088AB7450327C0C51ED7618F3777B8D9E3A13BC0FDCC5FE77E7F414262B700BB39EADC619BEE70F0F8377B7C35034FE0734C9AE021E8DC17E4B4CCD3B4
310
01E904B82970B7C7F308E0DDC10C46C1B10B7C678FE7791848E90E6F8F42C904A87DCFF85CE03A10910C55D08642BD1E6E5F8CA450A0BBC3793F9CCAD1F802000000C0A294F083DF9FE39F22FC4CF00428FF443C01D26E017FB9B6C1E472B124A87800000000000000000000000000000000000000F88FF803C1FE58B7E0A9
310
1D240000000049454E44AE426082AC6D91CB0000000049454E44AE426082C99EAE2E2D279F05E2D0735303EE937716980C4376F5BCEAF706FA446C17D36598201CE077B547F625C01FE580B35980A2BEEBD82797C8B60B148E0BE31EBD0A600A946B0A64DB064D83EE00F66F0A6C6BC0EAF87BB90AF01DA97681F3579684A2
310
4A9E904A80C38E66EF803B2412C0B7B4554F634B787BB829F748D4085DDECA1E99FE4DFC5B84AB2E68E39AE7260E9ECCA77EAF7D95FF235AFA7FB30BFC889402FCC537CD648145089444000000000000000000000000000000000000000000000000805FE70FBE6DB498CA8512A70000000049454E44AE426082820F51FF37
310
02A049827302622248BD00C7C0DB04685682DC0C559218F89DBB40CE8418FB81A32EA0BB0BF4750040A3904D9AA172B004D376729401DD4A104B25C81258D604ABF12850C5D1A2CF0840ED5EC0F712586E023624318E81B88289814369403707548A50CE7D3C74B0D10E1702301543477D40B9193A2C88080F5857F1B80BDC
310
A01768E449DF3000DF4C40EE056A02A0F108189F4F468744D22E90F3E021029E1002B31C900F8E7C42C02D04113E88C1BB806B0F8CBC2000C37102EEB00B4849CC976362A20EE83F65282D6526A055C49FB30BBC3C4B6C14A8CD595351190DEF036FE001DDE171E82531B74140760558958F34E007BEF400B14CC497111DCD
310
29F602B84312831721902F2C7021250D3EFF1E315B4ABF80E22EBE980940650260FB2C3198EC02320B920B00DB9756BA0091EFE4DF405D0FA8EB80E63416A9908DF4802BA0B40DEE90C426D50A520CA48B6A009006C21506212043037BBF5095C55B496C5A0A278F66662217904D261EE8AA23C147C982FC9A4898373830B2
310
57162F76054EF98B07D4B6605962F206CA998219C991CA2ED0A6FDC1C9D20355F88B72C0E6A13198144295A4C19A3F7E02A51CE065E543174C94E1ECE8F08081E610C8EDEDCF1E1009F074E6924F17CDF025337EA60A0B064239EAF53002F80C1190974BD15543F971DA0BF0E95EA19CF7059F40AB1DDEBF5F34040C87C7CD
310
D02060F78593A37AB559B24F09D0F080B595DFD9B3E246089C05951C40850B0ECB1114F5D9C057F04C283543F99A716C0B5C272EA377B3ABC71F6E7F0C01875D9F8EA2CEE5D1245B3CD9FCB3BE42E3A1C69F0B143250EE757BEB38AEBEC46883C1F07CFCF43799D997B9D145D0B756AD2E77806BB4BD67888235011602AA4E
310
AEA40ACBFFF4A7BFD7D06030180C0683C16030180C0683C16030180C0683C16030180C86C7E01FB6569D049842B5EB0000000049454E44AE42608270307E2988F003005A7D1CD6253CD12B1CB7754AB56E1095A2186AA90820AE4BD8DF2B1C17FDC5565AD5E2414200D70B20B04BD8BD5E20742F31B250ACEE95AF09383584
310
B82E61AF0F88DD4ECE9807C89718365474B64AE0DDC33F2A138C6A95C1074EBF660AC213C2B99678500DCD77097B7CC075C58FE2FF01D8626AC3F91FCF8BB60FA1A1FBF9CAE28F873C6E01AA6C982E593FFF187E65B7B08380AB364C90B7E1060AD77E0965F7D09229BE83808BBF02D9408DF609BF8780576CF472A50FC094
310
7A04BC0E7F9DD3C9D6207B1E304E84F0BDF8739DE66A874A6AD0DE581BE0C74E7FECC6E207C876DBD7FF027FA795AE4DC02FE0CFEBDD122D025E3AFCBB785636D6EEB57D5D97003D8FBF6C272808B81EFFFC9F69E299C1DFB0809BF04FAF9D9F9C02500F69045C3FFC498F5075550D542402E4B5D1E4140074FA03080177B8
310
3F6CC8E27CF314872A3EBD8A22CB1510B7787FB2B85013C48FDAA84180D1BA4DAB288A1338D781DD12C890100062A928DB5C592120079E7F8500B89500D926C79AE300B4BEC190D5A2B513D809B82DFBC1B2BE90AC3424EB632B0240BDCCCE4CEAA76FACBC117063F617B281C2FC6AC96A179564D146DF560D84E0879F2320
310
62B52854F3E3BF6401C1F3A33F48C0FA6A51FA117E02D2EBF177531F3984BC04A4A70958DB4AB84E959C048C2F3F638F83D3F1530FEADAAE93FB11F6823DFCEF0FD16D0121042CEC2A4B908A34F938A575EE4C78C8674AB57FD0DC7CC2637A8021DE2B4FF65A64D0ED04D74D80EE2ECFAE2403A2274A36CE99E2FD083FF388
310
98FD04ACBB41AC96CDA1AA005425E15CBCEBE946331610A4072804D4AB254108054B21405F35F60001DAEEF22A01A81210B76AF24102AA3E41B188B2D133EB3BD9B662D04D404C14ACAE2F462FAE5111005C118AB27F9872828FEB01E6DD212CBAF9331610900C476DB0AD12A05D071ACA86E967880604941EFD7A613560E8
310
B362B0410000C94DD8F660649718E4BF94617C33FEBCD03ADFB180B3A15710C0774D24BB43023053B90D3FC07CCB84E604E93E2844B13DA0B37D82D8CE41077CBCCB09CCE3CF309F090E0B9927F167FF464A3F170522574DE68732C140FCABBB094D5583EFC1BFB86AF2B15A2044169C48FDB276CD551F0129BD4C1536EA3F
310
4D5EDC1610258ACEE3AF243F299570955088A1F97CE3D205FC1EC3CF2FB957B44E4D372ABFB3DF084964D1CCCD9A60C020302A22639F39238AA697E08FB9E4D813A228B7682A812EE29F098B7F0EE1B14CB0D504E5C63FAD886C4EE06102C485946E5544B631F00E02A2F03B3B09DF44C09081FF00D1134B7DDF6982E60000
310
000049454E44AE426082
  0
ENDSEC
  0
EOF
