  0
SECTION
  2
HEADER
  9
$ACADVER
  1
AC1027
  9
$ACADMAINTVER
 70
    83
  9
$DWGCODEPAGE
  3
ANSI_1252
  9
$LASTSAVEDBY
  1
chadclouser
  9
$REQUIREDVERSIONS
160
                 0
  9
$INSBASE
 10
0.0
 20
0.0
 30
0.0
  9
$EXTMIN
 10
7.822990362868608
 20
-96.92350740697438
 30
0.0
  9
$EXTMAX
 10
54.89769941718544
 20
-67.92396241283974
 30
0.0
  9
$LIMMIN
 10
0.0
 20
0.0
  9
$LIMMAX
 10
12.0
 20
9.0
  9
$ORTHOMODE
 70
     0
  9
$REGENMODE
 70
     1
  9
$FILLMODE
 70
     1
  9
$QTEXTMODE
 70
     0
  9
$MIRRTEXT
 70
     0
  9
$LTSCALE
 40
1.0
  9
$ATTMODE
 70
     1
  9
$TEXTSIZE
 40
12.10402048440558
  9
$TRACEWID
 40
0.05
  9
$TEXTSTYLE
  7
Standard
  9
$CLAYER
  8
0
  9
$CELTYPE
  6
ByLayer
  9
$CECOLOR
 62
   256
  9
$CELTSCALE
 40
1.0
  9
$DISPSILH
 70
     0
  9
$DIMSCALE
 40
1.0
  9
$DIMASZ
 40
1.0
  9
$DIMEXO
 40
0.05
  9
$DIMDLI
 40
0.505
  9
$DIMRND
 40
0.0
  9
$DIMDLE
 40
0.675
  9
$DIMEXE
 40
0.675
  9
$DIMTP
 40
0.0
  9
$DIMTM
 40
0.0
  9
$DIMTXT
 40
1.0
  9
$DIMCEN
 40
0.09
  9
$DIMTSZ
 40
0.0
  9
$DIMTOL
 70
     0
  9
$DIMLIM
 70
     0
  9
$DIMTIH
 70
     0
  9
$DIMTOH
 70
     0
  9
$DIMSE1
 70
     0
  9
$DIMSE2
 70
     0
  9
$DIMTAD
 70
     0
  9
$DIMZIN
 70
     3
  9
$DIMBLK
  1
ARCHTICK
  9
$DIMASO
 70
     1
  9
$DIMSHO
 70
     1
  9
$DIMPOST
  1

  9
$DIMAPOST
  1

  9
$DIMALT
 70
     0
  9
$DIMALTD
 70
     2
  9
$DIMALTF
 40
25.4
  9
$DIMLFAC
 40
0.9999999999999998
  9
$DIMTOFL
 70
     1
  9
$DIMTVP
 40
0.0
  9
$DIMTIX
 70
     0
  9
$DIMSOXD
 70
     0
  9
$DIMSAH
 70
     0
  9
$DIMBLK1
  1

  9
$DIMBLK2
  1

  9
$DIMSTYLE
  2
HUNTER-1.5INCH
  9
$DIMCLRD
 70
   256
  9
$DIMCLRE
 70
   256
  9
$DIMCLRT
 70
   256
  9
$DIMTFAC
 40
1.0
  9
$DIMGAP
 40
0.04
  9
$DIMJUST
 70
     0
  9
$DIMSD1
 70
     0
  9
$DIMSD2
 70
     0
  9
$DIMTOLJ
 70
     1
  9
$DIMTZIN
 70
     0
  9
$DIMALTZ
 70
     0
  9
$DIMALTTZ
 70
     0
  9
$DIMUPT
 70
     0
  9
$DIMDEC
 70
     0
  9
$DIMTDEC
 70
     0
  9
$DIMALTU
 70
     2
  9
$DIMALTTD
 70
     2
  9
$DIMTXSTY
  7
Hunter
  9
$DIMAUNIT
 70
     0
  9
$DIMADEC
 70
     0
  9
$DIMALTRND
 40
0.0
  9
$DIMAZIN
 70
     0
  9
$DIMDSEP
 70
    46
  9
$DIMATFIT
 70
     1
  9
$DIMFRAC
 70
     0
  9
$DIMLDRBLK
  1
Open90
  9
$DIMLUNIT
 70
     4
  9
$DIMLWD
 70
    -1
  9
$DIMLWE
 70
    -2
  9
$DIMTMOVE
 70
     2
  9
$DIMFXL
 40
1.0
  9
$DIMFXLON
 70
     0
  9
$DIMJOGANG
 40
0.7853981633974483
  9
$DIMTFILL
 70
     0
  9
$DIMTFILLCLR
 70
     0
  9
$DIMARCSYM
 70
     0
  9
$DIMLTYPE
  6

  9
$DIMLTEX1
  6

  9
$DIMLTEX2
  6

  9
$DIMTXTDIRECTION
 70
     0
  9
$LUNITS
 70
     4
  9
$LUPREC
 70
     4
  9
$SKETCHINC
 40
0.1
  9
$FILLETRAD
 40
0.0
  9
$AUNITS
 70
     0
  9
$AUPREC
 70
     2
  9
$MENU
  1
.
  9
$ELEVATION
 40
0.0
  9
$PELEVATION
 40
0.0
  9
$THICKNESS
 40
0.0
  9
$LIMCHECK
 70
     0
  9
$CHAMFERA
 40
0.0
  9
$CHAMFERB
 40
0.0
  9
$CHAMFERC
 40
0.0
  9
$CHAMFERD
 40
0.0
  9
$SKPOLY
 70
     0
  9
$TDCREATE
 40
2454770.393585949
  9
$TDUCREATE
 40
2454770.601919282
  9
$TDUPDATE
 40
2458066.628894919
  9
$TDUUPDATE
 40
2458066.837228252
  9
$TDINDWG
 40
95.9119217477
  9
$TDUSRTIMER
 40
95.9119215741
  9
$USRTIMER
 70
     1
  9
$ANGBASE
 50
0.0
  9
$ANGDIR
 70
     0
  9
$PDMODE
 70
     0
  9
$PDSIZE
 40
0.0
  9
$PLINEWID
 40
0.0
  9
$SPLFRAME
 70
     0
  9
$SPLINETYPE
 70
     6
  9
$SPLINESEGS
 70
     8
  9
$HANDSEED
  5
AE7AD
  9
$SURFTAB1
 70
     6
  9
$SURFTAB2
 70
     6
  9
$SURFTYPE
 70
     6
  9
$SURFU
 70
     6
  9
$SURFV
 70
     6
  9
$UCSBASE
  2

  9
$UCSNAME
  2

  9
$UCSORG
 10
0.0
 20
0.0
 30
0.0
  9
$UCSXDIR
 10
1.0
 20
0.0
 30
0.0
  9
$UCSYDIR
 10
0.0
 20
1.0
 30
0.0
  9
$UCSORTHOREF
  2

  9
$UCSORTHOVIEW
 70
     0
  9
$UCSORGTOP
 10
0.0
 20
0.0
 30
0.0
  9
$UCSORGBOTTOM
 10
0.0
 20
0.0
 30
0.0
  9
$UCSORGLEFT
 10
0.0
 20
0.0
 30
0.0
  9
$UCSORGRIGHT
 10
0.0
 20
0.0
 30
0.0
  9
$UCSORGFRONT
 10
0.0
 20
0.0
 30
0.0
  9
$UCSORGBACK
 10
0.0
 20
0.0
 30
0.0
  9
$PUCSBASE
  2

  9
$PUCSNAME
  2

  9
$PUCSORG
 10
0.0
 20
0.0
 30
0.0
  9
$PUCSXDIR
 10
1.0
 20
0.0
 30
0.0
  9
$PUCSYDIR
 10
0.0
 20
1.0
 30
0.0
  9
$PUCSORTHOREF
  2

  9
$PUCSORTHOVIEW
 70
     0
  9
$PUCSORGTOP
 10
0.0
 20
0.0
 30
0.0
  9
$PUCSORGBOTTOM
 10
0.0
 20
0.0
 30
0.0
  9
$PUCSORGLEFT
 10
0.0
 20
0.0
 30
0.0
  9
$PUCSORGRIGHT
 10
0.0
 20
0.0
 30
0.0
  9
$PUCSORGFRONT
 10
0.0
 20
0.0
 30
0.0
  9
$PUCSORGBACK
 10
0.0
 20
0.0
 30
0.0
  9
$USERI1
 70
     0
  9
$USERI2
 70
     0
  9
$USERI3
 70
     0
  9
$USERI4
 70
     0
  9
$USERI5
 70
     0
  9
$USERR1
 40
0.0
  9
$USERR2
 40
0.0
  9
$USERR3
 40
0.0
  9
$USERR4
 40
0.0
  9
$USERR5
 40
12.07090419886942
  9
$WORLDVIEW
 70
     1
  9
$SHADEDGE
 70
     3
  9
$SHADEDIF
 70
    70
  9
$TILEMODE
 70
     1
  9
$MAXACTVP
 70
    64
  9
$PINSBASE
 10
0.0
 20
0.0
 30
0.0
  9
$PLIMCHECK
 70
     0
  9
$PEXTMIN
 10
0.0145643619954186
 20
0.0132348038147043
 30
-0.0000000349181948
  9
$PEXTMAX
 10
10.27458914444549
 20
7.796388667592996
 30
0.0000000814935746
  9
$PLIMMIN
 10
-0.7005418191744587
 20
-0.2281003861915408
  9
$PLIMMAX
 10
10.99237156665231
 20
8.039616149241531
  9
$UNITMODE
 70
     0
  9
$VISRETAIN
 70
     1
  9
$PLINEGEN
 70
     0
  9
$PSLTSCALE
 70
     1
  9
$TREEDEPTH
 70
  3020
  9
$CMLSTYLE
  2
Standard
  9
$CMLJUST
 70
     1
  9
$CMLSCALE
 40
8.0
  9
$PROXYGRAPHICS
 70
     1
  9
$MEASUREMENT
 70
     0
  9
$CELWEIGHT
370
    -1
  9
$ENDCAPS
280
     0
  9
$JOINSTYLE
280
     0
  9
$LWDISPLAY
290
     0
  9
$INSUNITS
 70
     1
  9
$HYPERLINKBASE
  1

  9
$STYLESHEET
  1
Standard Pen Settings.ctb
  9
$XEDIT
290
     1
  9
$CEPSNTYPE
380
     0
  9
$PSTYLEMODE
290
     1
  9
$FINGERPRINTGUID
  2
{042633EE-7B2A-4DA3-9B1E-3D8485D08136}
  9
$VERSIONGUID
  2
{0BD4CFB5-29C5-4203-AC27-27BED746297E}
  9
$EXTNAMES
290
     1
  9
$PSVPSCALE
 40
0.0
  9
$OLESTARTUP
290
     0
  9
$SORTENTS
280
   127
  9
$INDEXCTL
280
     0
  9
$HIDETEXT
280
     1
  9
$XCLIPFRAME
280
     0
  9
$HALOGAP
280
     0
  9
$OBSCOLOR
 70
   257
  9
$OBSLTYPE
280
     0
  9
$INTERSECTIONDISPLAY
280
     0
  9
$INTERSECTIONCOLOR
 70
   257
  9
$DIMASSOC
280
     2
  9
$PROJECTNAME
  1

  9
$CAMERADISPLAY
290
     0
  9
$LENSLENGTH
 40
50.0
  9
$CAMERAHEIGHT
 40
0.0
  9
$STEPSPERSEC
 40
2.0
  9
$STEPSIZE
 40
6.0
  9
$3DDWFPREC
 40
2.0
  9
$PSOLWIDTH
 40
0.25
  9
$PSOLHEIGHT
 40
4.0
  9
$LOFTANG1
 40
1.570796326794896
  9
$LOFTANG2
 40
1.570796326794896
  9
$LOFTMAG1
 40
0.0
  9
$LOFTMAG2
 40
0.0
  9
$LOFTPARAM
 70
     7
  9
$LOFTNORMALS
280
     1
  9
$LATITUDE
 40
37.795
  9
$LONGITUDE
 40
-122.394
  9
$NORTHDIRECTION
 40
0.0
  9
$TIMEZONE
 70
 -8000
  9
$LIGHTGLYPHDISPLAY
280
     1
  9
$TILEMODELIGHTSYNCH
280
     1
  9
$CMATERIAL
347
96
  9
$SOLIDHIST
280
     1
  9
$SHOWHIST
280
     1
  9
$DWFFRAME
280
     2
  9
$DGNFRAME
280
     0
  9
$REALWORLDSCALE
290
     1
  9
$INTERFERECOLOR
 62
     1
  9
$INTERFEREOBJVS
345
A3
  9
$INTERFEREVPVS
346
A0
  9
$CSHADOW
280
     0
  9
$SHADOWPLANELOCATION
 40
0.0
  0
ENDSEC
  0
SECTION
  2
CLASSES
  0
CLASS
  1
ACDBDICTIONARYWDFLT
  2
AcDbDictionaryWithDefault
  3
ObjectDBX Classes
 90
        0
 91
        1
280
     0
281
     0
  0
CLASS
  1
ACDBPLACEHOLDER
  2
AcDbPlaceHolder
  3
ObjectDBX Classes
 90
        0
 91
        1
280
     0
281
     0
  0
CLASS
  1
LAYOUT
  2
AcDbLayout
  3
ObjectDBX Classes
 90
        0
 91
        3
280
     0
281
     0
  0
CLASS
  1
DICTIONARYVAR
  2
AcDbDictionaryVar
  3
ObjectDBX Classes
 90
        0
 91
       13
280
     0
281
     0
  0
CLASS
  1
TABLESTYLE
  2
AcDbTableStyle
  3
ObjectDBX Classes
 90
     4095
 91
        1
280
     0
281
     0
  0
CLASS
  1
MATERIAL
  2
AcDbMaterial
  3
ObjectDBX Classes
 90
     1153
 91
        3
280
     0
281
     0
  0
CLASS
  1
VISUALSTYLE
  2
AcDbVisualStyle
  3
ObjectDBX Classes
 90
     4095
 91
       26
280
     0
281
     0
  0
CLASS
  1
EXACXREFPANELOBJECT
  2
ExAcXREFPanelObject
  3
EXAC_ESW
 90
     1025
 91
        0
280
     0
281
     0
  0
CLASS
  1
NPOCOLLECTION
  2
AcDbImpNonPersistentObjectsCollection
  3
ObjectDBX Classes
 90
     1153
 91
        0
280
     0
281
     0
  0
CLASS
  1
PLOTSETTINGS
  2
AcDbPlotSettings
  3
ObjectDBX Classes
 90
        0
 91
        6
280
     0
281
     0
  0
CLASS
  1
SORTENTSTABLE
  2
AcDbSortentsTable
  3
ObjectDBX Classes
 90
        0
 91
        1
280
     0
281
     0
  0
CLASS
  1
ACAD_EVALUATION_GRAPH
  2
AcDbEvalGraph
  3
ObjectDBX Classes
 90
     1153
 91
        0
280
     0
281
     0
  0
CLASS
  1
ACAECUSTOBJ
  2
AcAeEditorObj
  3
AcAeEditorObj
 90
     1024
 91
        0
280
     0
281
     0
  0
CLASS
  1
ACDB_DYNAMICBLOCKPURGEPREVENTER_VERSION
  2
AcDbDynamicBlockPurgePreventer
  3
ObjectDBX Classes
 90
     1153
 91
        0
280
     0
281
     0
  0
CLASS
  1
BLOCKVISIBILITYPARAMETER
  2
AcDbBlockVisibilityParameter
  3
ObjectDBX Classes
 90
     1153
 91
        0
280
     0
281
     0
  0
CLASS
  1
BLOCKVISIBILITYGRIP
  2
AcDbBlockVisibilityGrip
  3
ObjectDBX Classes
 90
     1153
 91
        0
280
     0
281
     0
  0
CLASS
  1
BLOCKGRIPLOCATIONCOMPONENT
  2
AcDbBlockGripExpr
  3
ObjectDBX Classes
 90
     1153
 91
        0
280
     0
281
     0
  0
CLASS
  1
ACDB_BLOCKREPRESENTATION_DATA
  2
AcDbBlockRepresentationData
  3
ObjectDBX Classes
 90
     1153
 91
        0
280
     0
281
     0
  0
CLASS
  1
BLOCKROTATIONPARAMETER
  2
AcDbBlockRotationParameter
  3
ObjectDBX Classes
 90
     1153
 91
        0
280
     0
281
     0
  0
CLASS
  1
BLOCKROTATIONGRIP
  2
AcDbBlockRotationGrip
  3
ObjectDBX Classes
 90
     1153
 91
        0
280
     0
281
     0
  0
CLASS
  1
BLOCKROTATEACTION
  2
AcDbBlockRotateAction
  3
ObjectDBX Classes
 90
     1153
 91
        0
280
     0
281
     0
  0
CLASS
  1
EXACTERMXREFMAP
  2
ExAcTermXrefMap
  3
EXAC_SERVICE
 90
     1025
 91
        0
280
     0
281
     0
  0
CLASS
  1
RASTERVARIABLES
  2
AcDbRasterVariables
  3
ISM
 90
        0
 91
        1
280
     0
281
     0
  0
CLASS
  1
SCALE
  2
AcDbScale
  3
ObjectDBX Classes
 90
     1153
 91
       37
280
     0
281
     0
  0
CLASS
  1
MLEADERSTYLE
  2
AcDbMLeaderStyle
  3
ACDB_MLEADERSTYLE_CLASS
 90
     4095
 91
        1
280
     0
281
     0
  0
CLASS
  1
CELLSTYLEMAP
  2
AcDbCellStyleMap
  3
ObjectDBX Classes
 90
     1152
 91
        1
280
     0
281
     0
  0
CLASS
  1
BLOCKLINEARPARAMETER
  2
AcDbBlockLinearParameter
  3
ObjectDBX Classes
 90
     1153
 91
        0
280
     0
281
     0
  0
CLASS
  1
BLOCKLINEARGRIP
  2
AcDbBlockLinearGrip
  3
ObjectDBX Classes
 90
     1153
 91
        0
280
     0
281
     0
  0
CLASS
  1
BLOCKSCALEACTION
  2
AcDbBlockScaleAction
  3
ObjectDBX Classes
 90
     1153
 91
        0
280
     0
281
     0
  0
CLASS
  1
WIPEOUT
  2
AcDbWipeout
  3
WipeOut|Product Desc: Object Enabler for WipeOut entity | Company: Autodesk, Inc. | WEB Address: www.autodesk.com
 90
     2175
 91
        0
280
     0
281
     1
  0
CLASS
  1
WIPEOUTVARIABLES
  2
AcDbWipeoutVariables
  3
"WipeOut|Product Desc:     WipeOut Dbx Application|Company:          Autodesk, Inc.|WEB Address:      www.autodesk.com"
 90
        0
 91
        1
280
     0
281
     0
  0
CLASS
  1
DIMASSOC
  2
AcDbDimAssoc
  3
"AcDbDimAssoc|Product Desc:     AcDim ARX App For Dimension|Company:          Autodesk, Inc.|WEB Address:      www.autodesk.com"
 90
        0
 91
        0
280
     0
281
     0
  0
CLASS
  1
AEC_REFEDIT_STATUS_TRACKER
  2
AecDbRefEditStatusTracker
  3
AecArchBase70|Product Desc: Autodesk Architectural Desktop 2007 |Company: Autodesk,Inc. |WEB Address: www.autodesk.com
 90
      129
 91
        0
280
     0
281
     0
  0
CLASS
  1
BLOCKPOLARPARAMETER
  2
AcDbBlockPolarParameter
  3
ObjectDBX Classes
 90
     1153
 91
        0
280
     0
281
     0
  0
CLASS
  1
BLOCKPOLARGRIP
  2
AcDbBlockPolarGrip
  3
ObjectDBX Classes
 90
     1153
 91
        0
280
     0
281
     0
  0
CLASS
  1
BLOCKSTRETCHACTION
  2
AcDbBlockStretchAction
  3
ObjectDBX Classes
 90
     1153
 91
        0
280
     0
281
     0
  0
CLASS
  1
BLOCKFLIPPARAMETER
  2
AcDbBlockFlipParameter
  3
ObjectDBX Classes
 90
     1153
 91
        0
280
     0
281
     0
  0
CLASS
  1
BLOCKFLIPGRIP
  2
AcDbBlockFlipGrip
  3
ObjectDBX Classes
 90
     1153
 91
        0
280
     0
281
     0
  0
CLASS
  1
BLOCKFLIPACTION
  2
AcDbBlockFlipAction
  3
ObjectDBX Classes
 90
     1153
 91
        0
280
     0
281
     0
  0
CLASS
  1
AEC_NOTIFICATION_TRACKER
  2
AecDbNotificationTracker
  3
AecBase70|Product Desc: Autodesk Architectural Desktop 2007 |Company: Autodesk,Inc. |WEB Address: www.autodesk.com
 90
      129
 91
        0
280
     0
281
     0
  0
CLASS
  1
ACDBSECTIONVIEWSTYLE
  2
AcDbSectionViewStyle
  3
ObjectDBX Classes
 90
     1025
 91
        1
280
     0
281
     0
  0
CLASS
  1
ACDBDETAILVIEWSTYLE
  2
AcDbDetailViewStyle
  3
ObjectDBX Classes
 90
     1025
 91
        1
280
     0
281
     0
  0
CLASS
  1
AEC_DISP_REP_ANCHOR_TAG_TO_ENT
  2
AecDbDispRepAnchorTagToEnt
  3
AecBase70|Product Desc: Autodesk Architectural Desktop 2007 |Company: Autodesk,Inc. |WEB Address: www.autodesk.com
 90
      129
 91
        1
280
     0
281
     0
  0
CLASS
  1
AEC_DISP_PROPS_ENT
  2
AecDbDispPropsEnt
  3
AecBase70|Product Desc: Autodesk Architectural Desktop 2007 |Company: Autodesk,Inc. |WEB Address: www.autodesk.com
 90
      129
 91
        7
280
     0
281
     0
  0
CLASS
  1
AEC_DISP_REP_2D_SECTION
  2
AecDbDispRep2dSection
  3
AecBase70|Product Desc: Autodesk Architectural Desktop 2007 |Company: Autodesk,Inc. |WEB Address: www.autodesk.com
 90
      129
 91
        1
280
     0
281
     0
  0
CLASS
  1
AEC_VARS_DWG_SETUP
  2
AecDbVarsDwgSetup
  3
AecBase70|Product Desc: Autodesk Architectural Desktop 2007 |Company: Autodesk,Inc. |WEB Address: www.autodesk.com
 90
      129
 91
        1
280
     0
281
     0
  0
CLASS
  1
AEC_DISP_PROPS_2D_SECTION
  2
AecDbDispProps2dSection
  3
AecBase70|Product Desc: Autodesk Architectural Desktop 2007 |Company: Autodesk,Inc. |WEB Address: www.autodesk.com
 90
      129
 91
        1
280
     0
281
     0
  0
CLASS
  1
AEC_DISP_REP_ANCHOR
  2
AecDbDispRepAnchor
  3
AecBase70|Product Desc: Autodesk Architectural Desktop 2007 |Company: Autodesk,Inc. |WEB Address: www.autodesk.com
 90
      129
 91
        1
280
     0
281
     0
  0
CLASS
  1
AEC_DISP_REP_ANCHOR_ENT_TO_NODE
  2
AecDbDispRepAnchorEntToNode
  3
AecBase70|Product Desc: Autodesk Architectural Desktop 2007 |Company: Autodesk,Inc. |WEB Address: www.autodesk.com
 90
      129
 91
        1
280
     0
281
     0
  0
CLASS
  1
AEC_DISP_REP_ANCHOR_EXT_TAG_TO_ENT
  2
AecDbDispRepAnchorExtendedTagToEnt
  3
AecBase70|Product Desc: Autodesk Architectural Desktop 2007 |Company: Autodesk,Inc. |WEB Address: www.autodesk.com
 90
      129
 91
        1
280
     0
281
     0
  0
CLASS
  1
AEC_DISP_REP_CLIP_VOLUME_MODEL
  2
AecDbDispRepClipVolModel
  3
AecBase70|Product Desc: Autodesk Architectural Desktop 2007 |Company: Autodesk,Inc. |WEB Address: www.autodesk.com
 90
      129
 91
        1
280
     0
281
     0
  0
CLASS
  1
AEC_DISP_PROPS_CLIP_VOLUME
  2
AecDbDispPropsClipVol
  3
AecBase70|Product Desc: Autodesk Architectural Desktop 2007 |Company: Autodesk,Inc. |WEB Address: www.autodesk.com
 90
      129
 91
       12
280
     0
281
     0
  0
CLASS
  1
AEC_DISP_REP_LAYOUT_GRID2D
  2
AecDbDispRepLayoutGrid2d
  3
AecBase70|Product Desc: Autodesk Architectural Desktop 2007 |Company: Autodesk,Inc. |WEB Address: www.autodesk.com
 90
      129
 91
        1
280
     0
281
     0
  0
CLASS
  1
AEC_DISP_PROPS_LAYOUT_GRID2D
  2
AecDbDispPropsLayoutGrid2d
  3
AecBase70|Product Desc: Autodesk Architectural Desktop 2007 |Company: Autodesk,Inc. |WEB Address: www.autodesk.com
 90
      129
 91
       11
280
     0
281
     0
  0
CLASS
  1
AEC_DISP_REP_EDITINPLACEPROFILE
  2
AecDbDispRepEditInPlaceProfile
  3
AecBase70|Product Desc: Autodesk Architectural Desktop 2007 |Company: Autodesk,Inc. |WEB Address: www.autodesk.com
 90
      129
 91
        1
280
     0
281
     0
  0
CLASS
  1
AEC_DISP_PROPS_EDITINPLACEPROFILE_MODEL
  2
AecDbDispPropsEditInPlaceProfile
  3
AecBase70|Product Desc: Autodesk Architectural Desktop 2007 |Company: Autodesk,Inc. |WEB Address: www.autodesk.com
 90
      129
 91
        1
280
     0
281
     0
  0
CLASS
  1
AEC_DISP_REP_CLIP_VOLUME_PLAN
  2
AecDbDispRepClipVolPlan
  3
AecBase70|Product Desc: Autodesk Architectural Desktop 2007 |Company: Autodesk,Inc. |WEB Address: www.autodesk.com
 90
      129
 91
        1
280
     0
281
     0
  0
CLASS
  1
AEC_DISP_REP_ENT_REF
  2
AecDbDispRepEntRef
  3
AecBase70|Product Desc: Autodesk Architectural Desktop 2007 |Company: Autodesk,Inc. |WEB Address: www.autodesk.com
 90
      129
 91
        1
280
     0
281
     0
  0
CLASS
  1
AEC_DISP_PROPS_ENT_REF
  2
AecDbDispPropsEntRef
  3
AecBase70|Product Desc: Autodesk Architectural Desktop 2007 |Company: Autodesk,Inc. |WEB Address: www.autodesk.com
 90
      129
 91
        1
280
     0
281
     0
  0
CLASS
  1
AEC_DISP_REP_LAYOUT_CURVE
  2
AecDbDispRepLayoutCurve
  3
AecBase70|Product Desc: Autodesk Architectural Desktop 2007 |Company: Autodesk,Inc. |WEB Address: www.autodesk.com
 90
      129
 91
        1
280
     0
281
     0
  0
CLASS
  1
AEC_DISP_PROPS_LAYOUT_CURVE
  2
AecDbDispPropsLayoutCurve
  3
AecBase70|Product Desc: Autodesk Architectural Desktop 2007 |Company: Autodesk,Inc. |WEB Address: www.autodesk.com
 90
      129
 91
        1
280
     0
281
     0
  0
CLASS
  1
AEC_DISP_REP_CLIP_VOLUME_RESULT_SUBDIV
  2
AecDbDispRepClipVolResSubDiv
  3
AecBase70|Product Desc: Autodesk Architectural Desktop 2007 |Company: Autodesk,Inc. |WEB Address: www.autodesk.com
 90
      129
 91
        1
280
     0
281
     0
  0
CLASS
  1
AEC_DISP_PROPS_CLIP_VOLUME_RESULT
  2
AecDbDispPropsClipVolResSubDiv
  3
AecBase70|Product Desc: Autodesk Architectural Desktop 2007 |Company: Autodesk,Inc. |WEB Address: www.autodesk.com
 90
      129
 91
        2
280
     0
281
     0
  0
CLASS
  1
AEC_DISP_REP_LAYOUT_GRID3D
  2
AecDbDispRepLayoutGrid3d
  3
AecBase70|Product Desc: Autodesk Architectural Desktop 2007 |Company: Autodesk,Inc. |WEB Address: www.autodesk.com
 90
      129
 91
        1
280
     0
281
     0
  0
CLASS
  1
AEC_DISP_PROPS_LAYOUT_GRID3D
  2
AecDbDispPropsLayoutGrid3d
  3
AecBase70|Product Desc: Autodesk Architectural Desktop 2007 |Company: Autodesk,Inc. |WEB Address: www.autodesk.com
 90
      129
 91
        1
280
     0
281
     0
  0
CLASS
  1
AEC_DISP_REP_MVBLOCK_REF_MODEL
  2
AecDbDispRepMvBlockRefModel
  3
AecBase70|Product Desc: Autodesk Architectural Desktop 2007 |Company: Autodesk,Inc. |WEB Address: www.autodesk.com
 90
      129
 91
        1
280
     0
281
     0
  0
CLASS
  1
AEC_DISP_REP_MASKBLOCK_REF
  2
AecDbDispRepMaskBlockRef
  3
AecBase70|Product Desc: Autodesk Architectural Desktop 2007 |Company: Autodesk,Inc. |WEB Address: www.autodesk.com
 90
      129
 91
        1
280
     0
281
     0
  0
CLASS
  1
AEC_DISP_PROPS_MASKBLOCK
  2
AecDbDispPropsMaskBlock
  3
AecBase70|Product Desc: Autodesk Architectural Desktop 2007 |Company: Autodesk,Inc. |WEB Address: www.autodesk.com
 90
      129
 91
        2
280
     0
281
     0
  0
CLASS
  1
AEC_DISP_REP_CLIP_VOLUME_RESULT
  2
AecDbDispRepClipVolResult
  3
AecBase70|Product Desc: Autodesk Architectural Desktop 2007 |Company: Autodesk,Inc. |WEB Address: www.autodesk.com
 90
      129
 91
        1
280
     0
281
     0
  0
CLASS
  1
AEC_DISP_REP_MVBLOCK_REF
  2
AecDbDispRepMvBlockRef
  3
AecBase70|Product Desc: Autodesk Architectural Desktop 2007 |Company: Autodesk,Inc. |WEB Address: www.autodesk.com
 90
      129
 91
        2
280
     0
281
     0
  0
CLASS
  1
AEC_DISP_REP_POLYGON_MODEL
  2
AecDbDispRepPolygonModel
  3
AecBase70|Product Desc: Autodesk Architectural Desktop 2007 |Company: Autodesk,Inc. |WEB Address: www.autodesk.com
 90
      129
 91
        1
280
     0
281
     0
  0
CLASS
  1
AEC_DISP_PROPS_POLYGON_MODEL
  2
AecDbDispPropsPolygonModel
  3
AecBase70|Product Desc: Autodesk Architectural Desktop 2007 |Company: Autodesk,Inc. |WEB Address: www.autodesk.com
 90
      129
 91
        1
280
     0
281
     0
  0
CLASS
  1
AEC_DISP_REP_POLYGON_TRUECOLOUR
  2
AecDbDispRepPolygonTrueColour
  3
AecBase70|Product Desc: Autodesk Architectural Desktop 2007 |Company: Autodesk,Inc. |WEB Address: www.autodesk.com
 90
      129
 91
        1
280
     0
281
     0
  0
CLASS
  1
AEC_DISP_PROPS_POLYGON_TRUECOLOUR
  2
AecDbDispPropsPolygonTrueColour
  3
AecBase70|Product Desc: Autodesk Architectural Desktop 2007 |Company: Autodesk,Inc. |WEB Address: www.autodesk.com
 90
      129
 91
        1
280
     0
281
     0
  0
CLASS
  1
AEC_DISP_REP_MATERIAL
  2
AecDbDispRepMaterial
  3
AecBase70|Product Desc: Autodesk Architectural Desktop 2007 |Company: Autodesk,Inc. |WEB Address: www.autodesk.com
 90
      129
 91
        2
280
     0
281
     0
  0
CLASS
  1
AEC_DISP_PROPS_MATERIAL
  2
AecDbDispPropsMaterial
  3
AecBase70|Product Desc: Autodesk Architectural Desktop 2007 |Company: Autodesk,Inc. |WEB Address: www.autodesk.com
 90
      129
 91
        2
280
     0
281
     0
  0
CLASS
  1
AEC_DISP_REP_DISPLAYTHEME
  2
AecDbDispRepDisplayTheme
  3
AecBase70|Product Desc: Autodesk Architectural Desktop 2007 |Company: Autodesk,Inc. |WEB Address: www.autodesk.com
 90
      129
 91
        1
280
     0
281
     0
  0
CLASS
  1
AEC_DISP_PROPS_DISPLAYTHEME
  2
AecDbDispPropsDisplayTheme
  3
AecBase70|Product Desc: Autodesk Architectural Desktop 2007 |Company: Autodesk,Inc. |WEB Address: www.autodesk.com
 90
      129
 91
        1
280
     0
281
     0
  0
CLASS
  1
AEC_DISP_REP_SLICE
  2
AecDbDispRepSlice
  3
AecBase70|Product Desc: Autodesk Architectural Desktop 2007 |Company: Autodesk,Inc. |WEB Address: www.autodesk.com
 90
      129
 91
        1
280
     0
281
     0
  0
CLASS
  1
AEC_DISP_PROPS_SLICE
  2
AecDbDispPropsSlice
  3
AecBase70|Product Desc: Autodesk Architectural Desktop 2007 |Company: Autodesk,Inc. |WEB Address: www.autodesk.com
 90
      129
 91
        1
280
     0
281
     0
  0
CLASS
  1
AEC_DISP_REP_MASS_ELEM_SCHEM
  2
AecDbDispRepMassElemSchem
  3
AecBaseEx70|Product Desc: Autodesk Architectural Desktop 2007 |Company: Autodesk,Inc. |WEB Address: www.autodesk.com
 90
      129
 91
        1
280
     0
281
     0
  0
CLASS
  1
AEC_DISP_PROPS_MASS_ELEM_MODEL
  2
AecDbDispPropsMassElem
  3
AecBaseEx70|Product Desc: Autodesk Architectural Desktop 2007 |Company: Autodesk,Inc. |WEB Address: www.autodesk.com
 90
      129
 91
        3
280
     0
281
     0
  0
CLASS
  1
AEC_DISP_REP_MASS_GROUP_PLAN
  2
AecDbDispRepMassGroupPlan
  3
AecBaseEx70|Product Desc: Autodesk Architectural Desktop 2007 |Company: Autodesk,Inc. |WEB Address: www.autodesk.com
 90
      129
 91
        1
280
     0
281
     0
  0
CLASS
  1
AEC_DISP_PROPS_MASS_GROUP
  2
AecDbDispPropsMassGroup
  3
AecBaseEx70|Product Desc: Autodesk Architectural Desktop 2007 |Company: Autodesk,Inc. |WEB Address: www.autodesk.com
 90
      129
 91
        3
280
     0
281
     0
  0
CLASS
  1
AEC_DISP_REP_MASS_GROUP_MODEL
  2
AecDbDispRepMassGroupModel
  3
AecBaseEx70|Product Desc: Autodesk Architectural Desktop 2007 |Company: Autodesk,Inc. |WEB Address: www.autodesk.com
 90
      129
 91
        1
280
     0
281
     0
  0
CLASS
  1
AEC_DISP_REP_MASS_ELEM_MODEL
  2
AecDbDispRepMassElemModel
  3
AecBaseEx70|Product Desc: Autodesk Architectural Desktop 2007 |Company: Autodesk,Inc. |WEB Address: www.autodesk.com
 90
      129
 91
        1
280
     0
281
     0
  0
CLASS
  1
AEC_DISP_REP_WINDOW_ELEV
  2
AecDbDispRepWindowElev
  3
AecArchBase70|Product Desc: Autodesk Architectural Desktop 2007 |Company: Autodesk,Inc. |WEB Address: www.autodesk.com
 90
      129
 91
        1
280
     0
281
     0
  0
CLASS
  1
AEC_DISP_PROPS_WINDOW
  2
AecDbDispPropsWindow
  3
AecArchBase70|Product Desc: Autodesk Architectural Desktop 2007 |Company: Autodesk,Inc. |WEB Address: www.autodesk.com
 90
      129
 91
        4
280
     0
281
     0
  0
CLASS
  1
AEC_DISP_REP_WALL_MODEL
  2
AecDbDispRepWallModel
  3
AecArchBase70|Product Desc: Autodesk Architectural Desktop 2007 |Company: Autodesk,Inc. |WEB Address: www.autodesk.com
 90
      129
 91
        1
280
     0
281
     0
  0
CLASS
  1
AEC_DISP_PROPS_WALL_MODEL
  2
AecDbDispPropsWallModel
  3
AecArchBase70|Product Desc: Autodesk Architectural Desktop 2007 |Company: Autodesk,Inc. |WEB Address: www.autodesk.com
 90
      129
 91
        1
280
     0
281
     0
  0
CLASS
  1
AEC_DISP_REP_WINDOW_PLAN_50
  2
AecDbDispRepWindowPlan50
  3
AecArchBase70|Product Desc: Autodesk Architectural Desktop 2007 |Company: Autodesk,Inc. |WEB Address: www.autodesk.com
 90
      129
 91
        1
280
     0
281
     0
  0
CLASS
  1
AEC_DISP_PROPS_WINDOW_PLAN_50
  2
AecDbDispPropsWindowPlan50
  3
AecArchBase70|Product Desc: Autodesk Architectural Desktop 2007 |Company: Autodesk,Inc. |WEB Address: www.autodesk.com
 90
      129
 91
        1
280
     0
281
     0
  0
CLASS
  1
AEC_DISP_REP_WALL_RCP
  2
AecDbDispRepWallRcp
  3
AecArchBase70|Product Desc: Autodesk Architectural Desktop 2007 |Company: Autodesk,Inc. |WEB Address: www.autodesk.com
 90
      129
 91
        1
280
     0
281
     0
  0
CLASS
  1
AEC_DISP_PROPS_WALL_PLAN
  2
AecDbDispPropsWallPlan
  3
AecArchBase70|Product Desc: Autodesk Architectural Desktop 2007 |Company: Autodesk,Inc. |WEB Address: www.autodesk.com
 90
      129
 91
        4
280
     0
281
     0
  0
CLASS
  1
AEC_DISP_REP_WINDOW_PLAN
  2
AecDbDispRepWindowPlan
  3
AecArchBase70|Product Desc: Autodesk Architectural Desktop 2007 |Company: Autodesk,Inc. |WEB Address: www.autodesk.com
 90
      129
 91
        1
280
     0
281
     0
  0
CLASS
  1
AEC_DISP_REP_WINDOW_PLAN_100
  2
AecDbDispRepWindowPlan100
  3
AecArchBase70|Product Desc: Autodesk Architectural Desktop 2007 |Company: Autodesk,Inc. |WEB Address: www.autodesk.com
 90
      129
 91
        1
280
     0
281
     0
  0
CLASS
  1
AEC_DISP_PROPS_WINDOW_PLAN_100
  2
AecDbDispPropsWindowPlan100
  3
AecArchBase70|Product Desc: Autodesk Architectural Desktop 2007 |Company: Autodesk,Inc. |WEB Address: www.autodesk.com
 90
      129
 91
        1
280
     0
281
     0
  0
CLASS
  1
AEC_DISP_REP_WINDOW_SILL_PLAN
  2
AecDbDispRepWindowSillPlan
  3
AecArchBase70|Product Desc: Autodesk Architectural Desktop 2007 |Company: Autodesk,Inc. |WEB Address: www.autodesk.com
 90
      129
 91
        1
280
     0
281
     0
  0
CLASS
  1
AEC_DISP_PROPS_WINDOW_SILL_PLAN
  2
AecDbDispPropsWindowSillPlan
  3
AecArchBase70|Product Desc: Autodesk Architectural Desktop 2007 |Company: Autodesk,Inc. |WEB Address: www.autodesk.com
 90
      129
 91
        1
280
     0
281
     0
  0
CLASS
  1
AEC_DISP_REP_WINDOW_MODEL
  2
AecDbDispRepWindowModel
  3
AecArchBase70|Product Desc: Autodesk Architectural Desktop 2007 |Company: Autodesk,Inc. |WEB Address: www.autodesk.com
 90
      129
 91
        1
280
     0
281
     0
  0
CLASS
  1
AEC_DISP_REP_STAIR_RCP
  2
AecDbDispRepStairRcp
  3
AecArchBase70|Product Desc: Autodesk Architectural Desktop 2007 |Company: Autodesk,Inc. |WEB Address: www.autodesk.com
 90
      129
 91
        1
280
     0
281
     0
  0
CLASS
  1
AEC_DISP_PROPS_STAIR_PLAN
  2
AecDbDispPropsStairPlan
  3
AecArchBase70|Product Desc: Autodesk Architectural Desktop 2007 |Company: Autodesk,Inc. |WEB Address: www.autodesk.com
 90
      129
 91
        2
280
     0
281
     0
  0
CLASS
  1
AEC_DISP_REP_STAIR_PLAN_OVERLAPPING
  2
AecDbDispRepStairPlanOverlapping
  3
AecArchBase70|Product Desc: Autodesk Architectural Desktop 2007 |Company: Autodesk,Inc. |WEB Address: www.autodesk.com
 90
      129
 91
        1
280
     0
281
     0
  0
CLASS
  1
AEC_DISP_PROPS_STAIR_PLAN_OVERLAPPING
  2
AecDbDispPropsStairPlanOverlapping
  3
AecArchBase70|Product Desc: Autodesk Architectural Desktop 2007 |Company: Autodesk,Inc. |WEB Address: www.autodesk.com
 90
      129
 91
        1
280
     0
281
     0
  0
CLASS
  1
AEC_DISP_REP_WINDOWASSEMBLY_SILL_PLAN
  2
AecDbDispRepWindowAssemblySillPlan
  3
AecArchBase70|Product Desc: Autodesk Architectural Desktop 2007 |Company: Autodesk,Inc. |WEB Address: www.autodesk.com
 90
      129
 91
        1
280
     0
281
     0
  0
CLASS
  1
AEC_DISP_PROPS_WINDOW_ASSEMBLY_SILL_PLAN
  2
AecDbDispPropsWindowAssemblySillPlan
  3
AecArchBase70|Product Desc: Autodesk Architectural Desktop 2007 |Company: Autodesk,Inc. |WEB Address: www.autodesk.com
 90
      129
 91
        1
280
     0
281
     0
  0
CLASS
  1
AEC_DISP_REP_WALL_GRAPH
  2
AecDbDispRepWallGraph
  3
AecArchBase70|Product Desc: Autodesk Architectural Desktop 2007 |Company: Autodesk,Inc. |WEB Address: www.autodesk.com
 90
      129
 91
        1
280
     0
281
     0
  0
CLASS
  1
AEC_DISP_PROPS_WALL_GRAPH
  2
AecDbDispPropsWallGraph
  3
AecArchBase70|Product Desc: Autodesk Architectural Desktop 2007 |Company: Autodesk,Inc. |WEB Address: www.autodesk.com
 90
      129
 91
        1
280
     0
281
     0
  0
CLASS
  1
AEC_DISP_REP_WALL_SCHEM
  2
AecDbDispRepWallSchem
  3
AecArchBase70|Product Desc: Autodesk Architectural Desktop 2007 |Company: Autodesk,Inc. |WEB Address: www.autodesk.com
 90
      129
 91
        1
280
     0
281
     0
  0
CLASS
  1
AEC_DISP_PROPS_WALL_SCHEM
  2
AecDbDispPropsWallSchem
  3
AecArchBase70|Product Desc: Autodesk Architectural Desktop 2007 |Company: Autodesk,Inc. |WEB Address: www.autodesk.com
 90
      129
 91
        1
280
     0
281
     0
  0
CLASS
  1
AEC_DISP_REP_WINDOW_ASSEMBLY_MODEL
  2
AecDbDispRepWindowAssemblyModel
  3
AecArchBase70|Product Desc: Autodesk Architectural Desktop 2007 |Company: Autodesk,Inc. |WEB Address: www.autodesk.com
 90
      129
 91
        1
280
     0
281
     0
  0
CLASS
  1
AEC_DISP_PROPS_GRID_ASSEMBLY_MODEL
  2
AecDbDispPropsGridAssemblyModel
  3
AecArchBase70|Product Desc: Autodesk Architectural Desktop 2007 |Company: Autodesk,Inc. |WEB Address: www.autodesk.com
 90
      129
 91
        3
280
     0
281
     0
  0
CLASS
  1
AEC_DISP_REP_WINDOW_RCP
  2
AecDbDispRepWindowRcp
  3
AecArchBase70|Product Desc: Autodesk Architectural Desktop 2007 |Company: Autodesk,Inc. |WEB Address: www.autodesk.com
 90
      129
 91
        1
280
     0
281
     0
  0
CLASS
  1
AEC_DISP_REP_WINDOW_NOMINAL
  2
AecDbDispRepWindowNominal
  3
AecArchBase70|Product Desc: Autodesk Architectural Desktop 2007 |Company: Autodesk,Inc. |WEB Address: www.autodesk.com
 90
      129
 91
        1
280
     0
281
     0
  0
CLASS
  1
AEC_DISP_PROPS_WINDOW_NOMINAL
  2
AecDbDispPropsWindowNominal
  3
AecArchBase70|Product Desc: Autodesk Architectural Desktop 2007 |Company: Autodesk,Inc. |WEB Address: www.autodesk.com
 90
      129
 91
        1
280
     0
281
     0
  0
CLASS
  1
AEC_DISP_REP_BDG_SECTIONLINE_PLAN
  2
AecDbDispRepBdgElevLinePlan
  3
AecArchBase70|Product Desc: Autodesk Architectural Desktop 2007 |Company: Autodesk,Inc. |WEB Address: www.autodesk.com
 90
      129
 91
        1
280
     0
281
     0
  0
CLASS
  1
AEC_AECDBDISPREPCEILINGGRIDPLAN100
  2
AecDbDispRepCeilingGridPlan100
  3
AecArchBase70|Product Desc: Autodesk Architectural Desktop 2007 |Company: Autodesk,Inc. |WEB Address: www.autodesk.com
 90
      129
 91
        1
280
     0
281
     0
  0
CLASS
  1
AEC_AECDBDISPREPBDGELEVLINEPLAN100
  2
AecDbDispRepBdgElevLinePlan100
  3
AecArchBase70|Product Desc: Autodesk Architectural Desktop 2007 |Company: Autodesk,Inc. |WEB Address: www.autodesk.com
 90
      129
 91
        1
280
     0
281
     0
  0
CLASS
  1
AEC_AECDBDISPREPBDGSECTIONLINEPLAN100
  2
AecDbDispRepBdgSectionLinePlan100
  3
AecArchBase70|Product Desc: Autodesk Architectural Desktop 2007 |Company: Autodesk,Inc. |WEB Address: www.autodesk.com
 90
      129
 91
        1
280
     0
281
     0
  0
CLASS
  1
AEC_DISP_REP_CURTAIN_WALL_LAYOUT_PLAN
  2
AecDbDispRepCurtainWallLayoutPlan
  3
AecArchBase70|Product Desc: Autodesk Architectural Desktop 2007 |Company: Autodesk,Inc. |WEB Address: www.autodesk.com
 90
      129
 91
        1
280
     0
281
     0
  0
CLASS
  1
AEC_DISP_PROPS_GRID_ASSEMBLY_PLAN
  2
AecDbDispPropsGridAssemblyPlan
  3
AecArchBase70|Product Desc: Autodesk Architectural Desktop 2007 |Company: Autodesk,Inc. |WEB Address: www.autodesk.com
 90
      129
 91
        9
280
     0
281
     0
  0
CLASS
  1
AEC_DISP_REP_CEILING_GRID
  2
AecDbDispRepCeilingGrid
  3
AecArchBase70|Product Desc: Autodesk Architectural Desktop 2007 |Company: Autodesk,Inc. |WEB Address: www.autodesk.com
 90
      893
 91
        1
280
     0
281
     0
  0
CLASS
  1
AEC_AECDBDISPREPCOLUMNGRIDPLAN100
  2
AecDbDispRepColumnGridPlan100
  3
AecArchBase70|Product Desc: Autodesk Architectural Desktop 2007 |Company: Autodesk,Inc. |WEB Address: www.autodesk.com
 90
      129
 91
        1
280
     0
281
     0
  0
CLASS
  1
AEC_DISP_REP_CURTAIN_WALL_UNIT_PLAN
  2
AecDbDispRepCurtainWallUnitPlan
  3
AecArchBase70|Product Desc: Autodesk Architectural Desktop 2007 |Company: Autodesk,Inc. |WEB Address: www.autodesk.com
 90
      129
 91
        1
280
     0
281
     0
  0
CLASS
  1
AEC_AECDBDISPREPCURTAINWALLUNITPLAN100
  2
AecDbDispRepCurtainWallUnitPlan100
  3
AecArchBase70|Product Desc: Autodesk Architectural Desktop 2007 |Company: Autodesk,Inc. |WEB Address: www.autodesk.com
 90
      129
 91
        1
280
     0
281
     0
  0
CLASS
  1
AEC_DISP_REP_BDG_SECTIONLINE_PLAN
  2
AecDbDispRepBdgSectionLinePlan
  3
AecArchBase70|Product Desc: Autodesk Architectural Desktop 2007 |Company: Autodesk,Inc. |WEB Address: www.autodesk.com
 90
      129
 91
        1
280
     0
281
     0
  0
CLASS
  1
AEC_DISP_REP_COLUMN_GRID
  2
AecDbDispRepColumnGrid
  3
AecArchBase70|Product Desc: Autodesk Architectural Desktop 2007 |Company: Autodesk,Inc. |WEB Address: www.autodesk.com
 90
      129
 91
        1
280
     0
281
     0
  0
CLASS
  1
AEC_AECDBDISPREPCURTAINWALLLAYOUTPLAN100
  2
AecDbDispRepCurtainWallLayoutPlan100
  3
AecArchBase70|Product Desc: Autodesk Architectural Desktop 2007 |Company: Autodesk,Inc. |WEB Address: www.autodesk.com
 90
      129
 91
        1
280
     0
281
     0
  0
CLASS
  1
AEC_AECDBDISPREPMVBLOCKREFPLAN100
  2
AecDbDispRepMvBlockRefPlan100
  3
AecArchBase70|Product Desc: Autodesk Architectural Desktop 2007 |Company: Autodesk,Inc. |WEB Address: www.autodesk.com
 90
      129
 91
        1
280
     0
281
     0
  0
CLASS
  1
AEC_DISP_REP_ROOFSLAB_PLAN
  2
AecDbDispRepRoofSlabPlan
  3
AecArchBase70|Product Desc: Autodesk Architectural Desktop 2007 |Company: Autodesk,Inc. |WEB Address: www.autodesk.com
 90
      129
 91
        1
280
     0
281
     0
  0
CLASS
  1
AEC_DISP_PROPS_ROOFSLAB_PLAN
  2
AecDbDispPropsRoofSlabPlan
  3
AecArchBase70|Product Desc: Autodesk Architectural Desktop 2007 |Company: Autodesk,Inc. |WEB Address: www.autodesk.com
 90
      129
 91
        3
280
     0
281
     0
  0
CLASS
  1
AEC_DISP_REP_ROOF_PLAN
  2
AecDbDispRepRoofPlan
  3
AecArchBase70|Product Desc: Autodesk Architectural Desktop 2007 |Company: Autodesk,Inc. |WEB Address: www.autodesk.com
 90
      129
 91
        1
280
     0
281
     0
  0
CLASS
  1
AEC_DISP_PROPS_ROOF
  2
AecDbDispPropsRoof
  3
AecArchBase70|Product Desc: Autodesk Architectural Desktop 2007 |Company: Autodesk,Inc. |WEB Address: www.autodesk.com
 90
      129
 91
        5
280
     0
281
     0
  0
CLASS
  1
AEC_AECDBDISPREPSLABPLAN100
  2
AecDbDispRepSlabPlan100
  3
AecArchBase70|Product Desc: Autodesk Architectural Desktop 2007 |Company: Autodesk,Inc. |WEB Address: www.autodesk.com
 90
      129
 91
        1
280
     0
281
     0
  0
CLASS
  1
AEC_DISP_PROPS_SLAB_PLAN
  2
AecDbDispPropsSlabPlan
  3
AecArchBase70|Product Desc: Autodesk Architectural Desktop 2007 |Company: Autodesk,Inc. |WEB Address: www.autodesk.com
 90
      129
 91
        3
280
     0
281
     0
  0
CLASS
  1
AEC_DISP_REP_SPACE_PLAN
  2
AecDbDispRepSpacePlan
  3
AecArchBase70|Product Desc: Autodesk Architectural Desktop 2007 |Company: Autodesk,Inc. |WEB Address: www.autodesk.com
 90
      129
 91
        1
280
     0
281
     0
  0
CLASS
  1
AEC_DISP_PROPS_SPACE_PLAN
  2
AecDbDispPropsSpacePlan
  3
AecArchBase70|Product Desc: Autodesk Architectural Desktop 2007 |Company: Autodesk,Inc. |WEB Address: www.autodesk.com
 90
      129
 91
        4
280
     0
281
     0
  0
CLASS
  1
AEC_AECDBDISPREPROOFSLABPLAN100
  2
AecDbDispRepRoofSlabPlan100
  3
AecArchBase70|Product Desc: Autodesk Architectural Desktop 2007 |Company: Autodesk,Inc. |WEB Address: www.autodesk.com
 90
      129
 91
        1
280
     0
281
     0
  0
CLASS
  1
AEC_AECDBDISPREPSPACEPLAN100
  2
AecDbDispRepSpacePlan100
  3
AecArchBase70|Product Desc: Autodesk Architectural Desktop 2007 |Company: Autodesk,Inc. |WEB Address: www.autodesk.com
 90
      129
 91
        1
280
     0
281
     0
  0
CLASS
  1
AEC_AECDBDISPREPWALLPLAN100
  2
AecDbDispRepWallPlan100
  3
AecArchBase70|Product Desc: Autodesk Architectural Desktop 2007 |Company: Autodesk,Inc. |WEB Address: www.autodesk.com
 90
      129
 91
        1
280
     0
281
     0
  0
CLASS
  1
AEC_DISP_REP_SLAB_PLAN
  2
AecDbDispRepSlabPlan
  3
AecArchBase70|Product Desc: Autodesk Architectural Desktop 2007 |Company: Autodesk,Inc. |WEB Address: www.autodesk.com
 90
      129
 91
        1
280
     0
281
     0
  0
CLASS
  1
AEC_DISP_REP_WALL_PLAN
  2
AecDbDispRepWallPlan
  3
AecArchBase70|Product Desc: Autodesk Architectural Desktop 2007 |Company: Autodesk,Inc. |WEB Address: www.autodesk.com
 90
      129
 91
        1
280
     0
281
     0
  0
CLASS
  1
AEC_AECDBDISPREPROOFPLAN100
  2
AecDbDispRepRoofPlan100
  3
AecArchBase70|Product Desc: Autodesk Architectural Desktop 2007 |Company: Autodesk,Inc. |WEB Address: www.autodesk.com
 90
      129
 91
        1
280
     0
281
     0
  0
CLASS
  1
AEC_AECDBDISPREPZONE100
  2
AecDbDispRepZonePlan100
  3
AecArchBase70|Product Desc: Autodesk Architectural Desktop 2007 |Company: Autodesk,Inc. |WEB Address: www.autodesk.com
 90
      129
 91
        1
280
     0
281
     0
  0
CLASS
  1
AEC_DISP_PROPS_ZONE
  2
AecDbDispPropsZone
  3
AecArchBase70|Product Desc: Autodesk Architectural Desktop 2007 |Company: Autodesk,Inc. |WEB Address: www.autodesk.com
 90
      129
 91
        3
280
     0
281
     0
  0
CLASS
  1
AEC_DISP_REP_ZONE
  2
AecDbDispRepZone
  3
AecArchBase70|Product Desc: Autodesk Architectural Desktop 2007 |Company: Autodesk,Inc. |WEB Address: www.autodesk.com
 90
      129
 91
        1
280
     0
281
     0
  0
CLASS
  1
AEC_AECDBDISPREPCURTAINWALLUNITPLAN50
  2
AecDbDispRepCurtainWallUnitPlan50
  3
AecArchBase70|Product Desc: Autodesk Architectural Desktop 2007 |Company: Autodesk,Inc. |WEB Address: www.autodesk.com
 90
      129
 91
        1
280
     0
281
     0
  0
CLASS
  1
AEC_AECDBDISPREPCOLUMNGRIDPLAN50
  2
AecDbDispRepColumnGridPlan50
  3
AecArchBase70|Product Desc: Autodesk Architectural Desktop 2007 |Company: Autodesk,Inc. |WEB Address: www.autodesk.com
 90
      129
 91
        1
280
     0
281
     0
  0
CLASS
  1
AEC_AECDBDISPREPBDGSECTIONLINEPLAN50
  2
AecDbDispRepBdgSectionLinePlan50
  3
AecArchBase70|Product Desc: Autodesk Architectural Desktop 2007 |Company: Autodesk,Inc. |WEB Address: www.autodesk.com
 90
      129
 91
        1
280
     0
281
     0
  0
CLASS
  1
AEC_AECDBDISPREPMVBLOCKREFPLAN50
  2
AecDbDispRepMvBlockRefPlan50
  3
AecArchBase70|Product Desc: Autodesk Architectural Desktop 2007 |Company: Autodesk,Inc. |WEB Address: www.autodesk.com
 90
      129
 91
        1
280
     0
281
     0
  0
CLASS
  1
AEC_DISP_REP_WINDOW_ASSEMBLY_PLAN
  2
AecDbDispRepWindowAssemblyPlan
  3
AecArchBase70|Product Desc: Autodesk Architectural Desktop 2007 |Company: Autodesk,Inc. |WEB Address: www.autodesk.com
 90
      129
 91
        1
280
     0
281
     0
  0
CLASS
  1
AEC_AECDBDISPREPWINDOWASSEMBLYPLAN100
  2
AecDbDispRepWindowAssemblyPlan100
  3
AecArchBase70|Product Desc: Autodesk Architectural Desktop 2007 |Company: Autodesk,Inc. |WEB Address: www.autodesk.com
 90
      129
 91
        1
280
     0
281
     0
  0
CLASS
  1
AEC_AECDBDISPREPCEILINGGRIDPLAN50
  2
AecDbDispRepCeilingGridPlan50
  3
AecArchBase70|Product Desc: Autodesk Architectural Desktop 2007 |Company: Autodesk,Inc. |WEB Address: www.autodesk.com
 90
      129
 91
        1
280
     0
281
     0
  0
CLASS
  1
AEC_AECDBDISPREPROOFPLAN50
  2
AecDbDispRepRoofPlan50
  3
AecArchBase70|Product Desc: Autodesk Architectural Desktop 2007 |Company: Autodesk,Inc. |WEB Address: www.autodesk.com
 90
      129
 91
        1
280
     0
281
     0
  0
CLASS
  1
AEC_AECDBDISPREPSLABPLAN50
  2
AecDbDispRepSlabPlan50
  3
AecArchBase70|Product Desc: Autodesk Architectural Desktop 2007 |Company: Autodesk,Inc. |WEB Address: www.autodesk.com
 90
      129
 91
        1
280
     0
281
     0
  0
CLASS
  1
AEC_AECDBDISPREPBDGELEVLINEPLAN50
  2
AecDbDispRepBdgElevLinePlan50
  3
AecArchBase70|Product Desc: Autodesk Architectural Desktop 2007 |Company: Autodesk,Inc. |WEB Address: www.autodesk.com
 90
      129
 91
        1
280
     0
281
     0
  0
CLASS
  1
AEC_AECDBDISPREPCURTAINWALLLAYOUTPLAN50
  2
AecDbDispRepCurtainWallLayoutPlan50
  3
AecArchBase70|Product Desc: Autodesk Architectural Desktop 2007 |Company: Autodesk,Inc. |WEB Address: www.autodesk.com
 90
      129
 91
        1
280
     0
281
     0
  0
CLASS
  1
AEC_AECDBDISPREPROOFSLABPLAN50
  2
AecDbDispRepRoofSlabPlan50
  3
AecArchBase70|Product Desc: Autodesk Architectural Desktop 2007 |Company: Autodesk,Inc. |WEB Address: www.autodesk.com
 90
      129
 91
        1
280
     0
281
     0
  0
CLASS
  1
AEC_AECDBDISPREPWALLPLAN50
  2
AecDbDispRepWallPlan50
  3
AecArchBase70|Product Desc: Autodesk Architectural Desktop 2007 |Company: Autodesk,Inc. |WEB Address: www.autodesk.com
 90
      129
 91
        1
280
     0
281
     0
  0
CLASS
  1
AEC_AECDBDISPREPSPACEPLAN50
  2
AecDbDispRepSpacePlan50
  3
AecArchBase70|Product Desc: Autodesk Architectural Desktop 2007 |Company: Autodesk,Inc. |WEB Address: www.autodesk.com
 90
      129
 91
        1
280
     0
281
     0
  0
CLASS
  1
AEC_AECDBDISPREPZONE50
  2
AecDbDispRepZonePlan50
  3
AecArchBase70|Product Desc: Autodesk Architectural Desktop 2007 |Company: Autodesk,Inc. |WEB Address: www.autodesk.com
 90
      129
 91
        1
280
     0
281
     0
  0
CLASS
  1
AEC_AECDBDISPREPWINDOWASSEMBLYPLAN50
  2
AecDbDispRepWindowAssemblyPlan50
  3
AecArchBase70|Product Desc: Autodesk Architectural Desktop 2007 |Company: Autodesk,Inc. |WEB Address: www.autodesk.com
 90
      129
 91
        1
280
     0
281
     0
  0
CLASS
  1
AEC_DISP_REP_ANCHOR_BUB_TO_GRID
  2
AecDbDispRepAnchorBubToGrid
  3
AecArchBase70|Product Desc: Autodesk Architectural Desktop 2007 |Company: Autodesk,Inc. |WEB Address: www.autodesk.com
 90
      129
 91
        1
280
     0
281
     0
  0
CLASS
  1
AEC_DISP_REP_CEILING_GRID_RCP
  2
AecDbDispRepCeilingGridRcp
  3
AecArchBase70|Product Desc: Autodesk Architectural Desktop 2007 |Company: Autodesk,Inc. |WEB Address: www.autodesk.com
 90
      129
 91
        1
280
     0
281
     0
  0
CLASS
  1
AEC_DISP_REP_ANCHOR_BUB_TO_GRID_RCP
  2
AecDbDispRepAnchorBubToGridRcp
  3
AecArchBase70|Product Desc: Autodesk Architectural Desktop 2007 |Company: Autodesk,Inc. |WEB Address: www.autodesk.com
 90
      129
 91
        1
280
     0
281
     0
  0
CLASS
  1
AEC_DISP_REP_CURTAIN_WALL_UNIT_MODEL
  2
AecDbDispRepCurtainWallUnitModel
  3
AecArchBase70|Product Desc: Autodesk Architectural Desktop 2007 |Company: Autodesk,Inc. |WEB Address: www.autodesk.com
 90
      129
 91
        1
280
     0
281
     0
  0
CLASS
  1
AEC_DB_DISP_REP_DIM_GROUP_PLAN100
  2
AecDbDispRepDimGroupPlan100
  3
AecArchBase70|Product Desc: Autodesk Architectural Desktop 2007 |Company: Autodesk,Inc. |WEB Address: www.autodesk.com
 90
      129
 91
        1
280
     0
281
     0
  0
CLASS
  1
AEC_DISP_PROPS_DIM
  2
AecDbDispPropsDimGroup
  3
AecArchBase70|Product Desc: Autodesk Architectural Desktop 2007 |Company: Autodesk,Inc. |WEB Address: www.autodesk.com
 90
      129
 91
        3
280
     0
281
     0
  0
CLASS
  1
AEC_DISP_REP_BDG_ELEVLINE_RCP
  2
AecDbDispRepBdgElevLineRcp
  3
AecArchBase70|Product Desc: Autodesk Architectural Desktop 2007 |Company: Autodesk,Inc. |WEB Address: www.autodesk.com
 90
      129
 91
        1
280
     0
281
     0
  0
CLASS
  1
AEC_DISP_REP_BDG_SECTION_MODEL
  2
AecDbDispRepBdgSectionModel
  3
AecArchBase70|Product Desc: Autodesk Architectural Desktop 2007 |Company: Autodesk,Inc. |WEB Address: www.autodesk.com
 90
      129
 91
        1
280
     0
281
     0
  0
CLASS
  1
AEC_DISP_REP_BDG_SECTION_SUBDIV
  2
AecDbDispRepBdgSectionSubDiv
  3
AecArchBase70|Product Desc: Autodesk Architectural Desktop 2007 |Company: Autodesk,Inc. |WEB Address: www.autodesk.com
 90
      129
 91
        1
280
     0
281
     0
  0
CLASS
  1
AEC_DISP_REP_CEILING_GRID_MODEL
  2
AecDbDispRepCeilingGridModel
  3
AecArchBase70|Product Desc: Autodesk Architectural Desktop 2007 |Company: Autodesk,Inc. |WEB Address: www.autodesk.com
 90
      129
 91
        1
280
     0
281
     0
  0
CLASS
  1
AEC_DISP_REP_BDG_SECTIONLINE_MODEL
  2
AecDbDispRepBdgSectionLineModel
  3
AecArchBase70|Product Desc: Autodesk Architectural Desktop 2007 |Company: Autodesk,Inc. |WEB Address: www.autodesk.com
 90
      129
 91
        1
280
     0
281
     0
  0
CLASS
  1
AEC_DISP_REP_COLUMN_GRID_MODEL
  2
AecDbDispRepColumnGridModel
  3
AecArchBase70|Product Desc: Autodesk Architectural Desktop 2007 |Company: Autodesk,Inc. |WEB Address: www.autodesk.com
 90
      129
 91
        1
280
     0
281
     0
  0
CLASS
  1
AEC_DISP_REP_COLUMN_GRID_RCP
  2
AecDbDispRepColumnGridRcp
  3
AecArchBase70|Product Desc: Autodesk Architectural Desktop 2007 |Company: Autodesk,Inc. |WEB Address: www.autodesk.com
 90
      129
 91
        1
280
     0
281
     0
  0
CLASS
  1
AEC_DISP_REP_BDG_SECTIONLINE_RCP
  2
AecDbDispRepBdgSectionLineRcp
  3
AecArchBase70|Product Desc: Autodesk Architectural Desktop 2007 |Company: Autodesk,Inc. |WEB Address: www.autodesk.com
 90
      129
 91
        1
280
     0
281
     0
  0
CLASS
  1
AEC_DISP_REP_BDG_ELEVLINE_MODEL
  2
AecDbDispRepBdgElevLineModel
  3
AecArchBase70|Product Desc: Autodesk Architectural Desktop 2007 |Company: Autodesk,Inc. |WEB Address: www.autodesk.com
 90
      129
 91
        1
280
     0
281
     0
  0
CLASS
  1
AEC_DISP_REP_CURTAIN_WALL_LAYOUT_MODEL
  2
AecDbDispRepCurtainWallLayoutModel
  3
AecArchBase70|Product Desc: Autodesk Architectural Desktop 2007 |Company: Autodesk,Inc. |WEB Address: www.autodesk.com
 90
      129
 91
        1
280
     0
281
     0
  0
CLASS
  1
AEC_DISP_REP_ANCHOR_BUB_TO_GRID_MODEL
  2
AecDbDispRepAnchorBubToGridMdl
  3
AecArchBase70|Product Desc: Autodesk Architectural Desktop 2007 |Company: Autodesk,Inc. |WEB Address: www.autodesk.com
 90
      129
 91
        1
280
     0
281
     0
  0
CLASS
  1
AEC_DISP_REP_DOOR_THRESHOLD_SYMBOL_PLAN
  2
AecDbDispRepDoorThresholdSymbolPlan
  3
AecArchBase70|Product Desc: Autodesk Architectural Desktop 2007 |Company: Autodesk,Inc. |WEB Address: www.autodesk.com
 90
      129
 91
        1
280
     0
281
     0
  0
CLASS
  1
AEC_DISP_PROPS_DOOR_THRESHOLD_SYMBOL_PLAN
  2
AecDbDispPropsDoorThresholdSymbolPlan
  3
AecArchBase70|Product Desc: Autodesk Architectural Desktop 2007 |Company: Autodesk,Inc. |WEB Address: www.autodesk.com
 90
      129
 91
        1
280
     0
281
     0
  0
CLASS
  1
AEC_DISP_REP_DOOR_PLAN_HEKTO
  2
AecDbDispRepDoorPlanHekto
  3
AecArchBase70|Product Desc: Autodesk Architectural Desktop 2007 |Company: Autodesk,Inc. |WEB Address: www.autodesk.com
 90
      129
 91
        1
280
     0
281
     0
  0
CLASS
  1
AEC_DISP_PROPS_DOOR_PLAN_100
  2
AecDbDispPropsDoorPlan100
  3
AecArchBase70|Product Desc: Autodesk Architectural Desktop 2007 |Company: Autodesk,Inc. |WEB Address: www.autodesk.com
 90
      129
 91
        1
280
     0
281
     0
  0
CLASS
  1
AEC_DISPREPAECDBDISPREPMASSGROUPPLAN50
  2
AecDbDispRepMassGroupPlan50
  3
AecArchBase70|Product Desc: Autodesk Architectural Desktop 2007 |Company: Autodesk,Inc. |WEB Address: www.autodesk.com
 90
      129
 91
        1
280
     0
281
     0
  0
CLASS
  1
AEC_DISPROPSMASSGROUPPLANCOMMON
  2
AecDbDispPropsMassGroupPlanCommon
  3
AecArchBase70|Product Desc: Autodesk Architectural Desktop 2007 |Company: Autodesk,Inc. |WEB Address: www.autodesk.com
 90
      129
 91
        2
280
     0
281
     0
  0
CLASS
  1
AEC_DISP_REP_MASS_GROUP_RCP
  2
AecDbDispRepMassGroupRcp
  3
AecArchBase70|Product Desc: Autodesk Architectural Desktop 2007 |Company: Autodesk,Inc. |WEB Address: www.autodesk.com
 90
      129
 91
        1
280
     0
281
     0
  0
CLASS
  1
AEC_DB_DISP_REP_DIM_GROUP_PLAN50
  2
AecDbDispRepDimGroupPlan50
  3
AecArchBase70|Product Desc: Autodesk Architectural Desktop 2007 |Company: Autodesk,Inc. |WEB Address: www.autodesk.com
 90
      129
 91
        1
280
     0
281
     0
  0
CLASS
  1
AEC_DISP_REP_DOOR_MODEL
  2
AecDbDispRepDoorModel
  3
AecArchBase70|Product Desc: Autodesk Architectural Desktop 2007 |Company: Autodesk,Inc. |WEB Address: www.autodesk.com
 90
      129
 91
        1
280
     0
281
     0
  0
CLASS
  1
AEC_DISP_PROPS_DOOR
  2
AecDbDispPropsDoor
  3
AecArchBase70|Product Desc: Autodesk Architectural Desktop 2007 |Company: Autodesk,Inc. |WEB Address: www.autodesk.com
 90
      129
 91
        4
280
     0
281
     0
  0
CLASS
  1
AEC_DISP_REP_DOOR_PLAN_50
  2
AecDbDispRepDoorPlan50
  3
AecArchBase70|Product Desc: Autodesk Architectural Desktop 2007 |Company: Autodesk,Inc. |WEB Address: www.autodesk.com
 90
      129
 91
        1
280
     0
281
     0
  0
CLASS
  1
AEC_DISP_PROPS_DOOR_PLAN_50
  2
AecDbDispPropsDoorPlan50
  3
AecArchBase70|Product Desc: Autodesk Architectural Desktop 2007 |Company: Autodesk,Inc. |WEB Address: www.autodesk.com
 90
      129
 91
        1
280
     0
281
     0
  0
CLASS
  1
AEC_DISP_REP_DOOR_THRESHOLD_PLAN
  2
AecDbDispRepDoorThresholdPlan
  3
AecArchBase70|Product Desc: Autodesk Architectural Desktop 2007 |Company: Autodesk,Inc. |WEB Address: www.autodesk.com
 90
      129
 91
        1
280
     0
281
     0
  0
CLASS
  1
AEC_DISP_PROPS_DOOR_THRESHOLD_PLAN
  2
AecDbDispPropsDoorThresholdPlan
  3
AecArchBase70|Product Desc: Autodesk Architectural Desktop 2007 |Company: Autodesk,Inc. |WEB Address: www.autodesk.com
 90
      129
 91
        1
280
     0
281
     0
  0
CLASS
  1
AEC_DISP_REP_MASKBLOCK_REF_RCP
  2
AecDbDispRepMaskBlockRefRcp
  3
AecArchBase70|Product Desc: Autodesk Architectural Desktop 2007 |Company: Autodesk,Inc. |WEB Address: www.autodesk.com
 90
      129
 91
        1
280
     0
281
     0
  0
CLASS
  1
AEC_DISP_REP_DOOR_ELEV
  2
AecDbDispRepDoorElev
  3
AecArchBase70|Product Desc: Autodesk Architectural Desktop 2007 |Company: Autodesk,Inc. |WEB Address: www.autodesk.com
 90
      129
 91
        1
280
     0
281
     0
  0
CLASS
  1
AEC_DISPREPAECDBDISPREPMASSELEMPLAN50
  2
AecDbDispRepMassElemPlan50
  3
AecArchBase70|Product Desc: Autodesk Architectural Desktop 2007 |Company: Autodesk,Inc. |WEB Address: www.autodesk.com
 90
      129
 91
        1
280
     0
281
     0
  0
CLASS
  1
AEC_DISPROPSMASSELEMPLANCOMMON
  2
AecDbDispPropsMassElemPlanCommon
  3
AecArchBase70|Product Desc: Autodesk Architectural Desktop 2007 |Company: Autodesk,Inc. |WEB Address: www.autodesk.com
 90
      129
 91
        2
280
     0
281
     0
  0
CLASS
  1
AEC_DISP_REP_DOOR_NOMINAL
  2
AecDbDispRepDoorNominal
  3
AecArchBase70|Product Desc: Autodesk Architectural Desktop 2007 |Company: Autodesk,Inc. |WEB Address: www.autodesk.com
 90
      129
 91
        1
280
     0
281
     0
  0
CLASS
  1
AEC_DISP_PROPS_DOOR_NOMINAL
  2
AecDbDispPropsDoorNominal
  3
AecArchBase70|Product Desc: Autodesk Architectural Desktop 2007 |Company: Autodesk,Inc. |WEB Address: www.autodesk.com
 90
      129
 91
        1
280
     0
281
     0
  0
CLASS
  1
AEC_DISPREPAECDBDISPREPMASSELEMPLAN100
  2
AecDbDispRepMassElemPlan100
  3
AecArchBase70|Product Desc: Autodesk Architectural Desktop 2007 |Company: Autodesk,Inc. |WEB Address: www.autodesk.com
 90
      129
 91
        1
280
     0
281
     0
  0
CLASS
  1
AEC_DISP_REP_MASS_ELEM_RCP
  2
AecDbDispRepMassElemRcp
  3
AecArchBase70|Product Desc: Autodesk Architectural Desktop 2007 |Company: Autodesk,Inc. |WEB Address: www.autodesk.com
 90
      129
 91
        1
280
     0
281
     0
  0
CLASS
  1
AEC_DISP_REP_DOOR_PLAN
  2
AecDbDispRepDoorPlan
  3
AecArchBase70|Product Desc: Autodesk Architectural Desktop 2007 |Company: Autodesk,Inc. |WEB Address: www.autodesk.com
 90
      129
 91
        1
280
     0
281
     0
  0
CLASS
  1
AEC_DISP_REP_DOOR_RCP
  2
AecDbDispRepDoorRcp
  3
AecArchBase70|Product Desc: Autodesk Architectural Desktop 2007 |Company: Autodesk,Inc. |WEB Address: www.autodesk.com
 90
      129
 91
        1
280
     0
281
     0
  0
CLASS
  1
AEC_DISPREPAECDBDISPREPMASSGROUPPLAN100
  2
AecDbDispRepMassGroupPlan100
  3
AecArchBase70|Product Desc: Autodesk Architectural Desktop 2007 |Company: Autodesk,Inc. |WEB Address: www.autodesk.com
 90
      129
 91
        1
280
     0
281
     0
  0
CLASS
  1
AEC_DB_DISP_REP_DIM_GROUP_PLAN
  2
AecDbDispRepDimGroupPlan
  3
AecArchBase70|Product Desc: Autodesk Architectural Desktop 2007 |Company: Autodesk,Inc. |WEB Address: www.autodesk.com
 90
      129
 91
        1
280
     0
281
     0
  0
CLASS
  1
AEC_DISP_REP_OPENING_MODEL
  2
AecDbDispRepOpeningModel
  3
AecArchBase70|Product Desc: Autodesk Architectural Desktop 2007 |Company: Autodesk,Inc. |WEB Address: www.autodesk.com
 90
      129
 91
        1
280
     0
281
     0
  0
CLASS
  1
AEC_DISP_PROPS_OPENING
  2
AecDbDispPropsOpening
  3
AecArchBase70|Product Desc: Autodesk Architectural Desktop 2007 |Company: Autodesk,Inc. |WEB Address: www.autodesk.com
 90
      129
 91
        2
280
     0
281
     0
  0
CLASS
  1
AEC_DISPREPAECDBDISPREPOPENINGPLAN50
  2
AecDbDispRepOpeningPlan50
  3
AecArchBase70|Product Desc: Autodesk Architectural Desktop 2007 |Company: Autodesk,Inc. |WEB Address: www.autodesk.com
 90
      129
 91
        1
280
     0
281
     0
  0
CLASS
  1
AEC_DISPROPSOPENINGPLANCOMMONHATCHED
  2
AecDbDispPropsOpeningPlanCommonHatched
  3
AecArchBase70|Product Desc: Autodesk Architectural Desktop 2007 |Company: Autodesk,Inc. |WEB Address: www.autodesk.com
 90
      129
 91
        2
280
     0
281
     0
  0
CLASS
  1
AEC_DISPREPAECDBDISPREPOPENINGPLANREFLECTED
  2
AecDbDispRepOpeningPlanReflected
  3
AecArchBase70|Product Desc: Autodesk Architectural Desktop 2007 |Company: Autodesk,Inc. |WEB Address: www.autodesk.com
 90
      129
 91
        1
280
     0
281
     0
  0
CLASS
  1
AEC_DISPROPSOPENINGPLANCOMMON
  2
AecDbDispPropsOpeningPlanCommon
  3
AecArchBase70|Product Desc: Autodesk Architectural Desktop 2007 |Company: Autodesk,Inc. |WEB Address: www.autodesk.com
 90
      129
 91
        1
280
     0
281
     0
  0
CLASS
  1
AEC_DISP_REP_OPENING
  2
AecDbDispRepOpening
  3
AecArchBase70|Product Desc: Autodesk Architectural Desktop 2007 |Company: Autodesk,Inc. |WEB Address: www.autodesk.com
 90
      129
 91
        1
280
     0
281
     0
  0
CLASS
  1
AEC_DISP_REP_MVBLOCK_REF_RCP
  2
AecDbDispRepMvBlockRefRcp
  3
AecArchBase70|Product Desc: Autodesk Architectural Desktop 2007 |Company: Autodesk,Inc. |WEB Address: www.autodesk.com
 90
      129
 91
        1
280
     0
281
     0
  0
CLASS
  1
AEC_DISPREPAECDBDISPREPOPENINGPLAN100
  2
AecDbDispRepOpeningPlan100
  3
AecArchBase70|Product Desc: Autodesk Architectural Desktop 2007 |Company: Autodesk,Inc. |WEB Address: www.autodesk.com
 90
      129
 91
        1
280
     0
281
     0
  0
CLASS
  1
AEC_DISPREPAECDBDISPREPOPENINGSILLPLAN
  2
AecDbDispRepOpeningSillPlan
  3
AecArchBase70|Product Desc: Autodesk Architectural Desktop 2007 |Company: Autodesk,Inc. |WEB Address: www.autodesk.com
 90
      129
 91
        1
280
     0
281
     0
  0
CLASS
  1
AEC_DISPROPSOPENINGSILLPLAN
  2
AecDbDispPropsOpeningSillPlan
  3
AecArchBase70|Product Desc: Autodesk Architectural Desktop 2007 |Company: Autodesk,Inc. |WEB Address: www.autodesk.com
 90
      129
 91
        1
280
     0
281
     0
  0
CLASS
  1
AEC_DISP_REP_RAILING_PLAN
  2
AecDbDispRepRailingPlan
  3
AecArchBase70|Product Desc: Autodesk Architectural Desktop 2007 |Company: Autodesk,Inc. |WEB Address: www.autodesk.com
 90
      129
 91
        1
280
     0
281
     0
  0
CLASS
  1
AEC_DISP_PROPS_RAILING_PLAN
  2
AecDbDispPropsRailingPlan
  3
AecArchBase70|Product Desc: Autodesk Architectural Desktop 2007 |Company: Autodesk,Inc. |WEB Address: www.autodesk.com
 90
      129
 91
        1
280
     0
281
     0
  0
CLASS
  1
AEC_DISP_REP_ROOF_MODEL
  2
AecDbDispRepRoofModel
  3
AecArchBase70|Product Desc: Autodesk Architectural Desktop 2007 |Company: Autodesk,Inc. |WEB Address: www.autodesk.com
 90
      129
 91
        1
280
     0
281
     0
  0
CLASS
  1
AEC_DISP_REP_ROOF_RCP
  2
AecDbDispRepRoofRcp
  3
AecArchBase70|Product Desc: Autodesk Architectural Desktop 2007 |Company: Autodesk,Inc. |WEB Address: www.autodesk.com
 90
      129
 91
        1
280
     0
281
     0
  0
CLASS
  1
AEC_DISP_REP_RAILING_PLAN_100
  2
AecDbDispRepRailingPlan100
  3
AecArchBase70|Product Desc: Autodesk Architectural Desktop 2007 |Company: Autodesk,Inc. |WEB Address: www.autodesk.com
 90
      129
 91
        1
280
     0
281
     0
  0
CLASS
  1
AEC_DISP_ROPS_RAILING_PLAN_100
  2
AecDbDispPropsRailingPlan100
  3
AecArchBase70|Product Desc: Autodesk Architectural Desktop 2007 |Company: Autodesk,Inc. |WEB Address: www.autodesk.com
 90
      129
 91
        1
280
     0
281
     0
  0
CLASS
  1
AEC_DISP_REP_RAILING_PLAN_50
  2
AecDbDispRepRailingPlan50
  3
AecArchBase70|Product Desc: Autodesk Architectural Desktop 2007 |Company: Autodesk,Inc. |WEB Address: www.autodesk.com
 90
      129
 91
        1
280
     0
281
     0
  0
CLASS
  1
AEC_DISP_ROPS_RAILING_PLAN_50
  2
AecDbDispPropsRailingPlan50
  3
AecArchBase70|Product Desc: Autodesk Architectural Desktop 2007 |Company: Autodesk,Inc. |WEB Address: www.autodesk.com
 90
      129
 91
        1
280
     0
281
     0
  0
CLASS
  1
AEC_DISP_REP_RAILING_MODEL
  2
AecDbDispRepRailingModel
  3
AecArchBase70|Product Desc: Autodesk Architectural Desktop 2007 |Company: Autodesk,Inc. |WEB Address: www.autodesk.com
 90
      129
 91
        1
280
     0
281
     0
  0
CLASS
  1
AEC_DISP_PROPS_RAILING_MODEL
  2
AecDbDispPropsRailingModel
  3
AecArchBase70|Product Desc: Autodesk Architectural Desktop 2007 |Company: Autodesk,Inc. |WEB Address: www.autodesk.com
 90
      129
 91
        1
280
     0
281
     0
  0
CLASS
  1
AEC_DISP_REP_STAIR_MODEL
  2
AecDbDispRepStairModel
  3
AecArchBase70|Product Desc: Autodesk Architectural Desktop 2007 |Company: Autodesk,Inc. |WEB Address: www.autodesk.com
 90
      129
 91
        1
280
     0
281
     0
  0
CLASS
  1
AEC_DISP_PROPS_STAIR_MODEL
  2
AecDbDispPropsStairModel
  3
AecArchBase70|Product Desc: Autodesk Architectural Desktop 2007 |Company: Autodesk,Inc. |WEB Address: www.autodesk.com
 90
      129
 91
        1
280
     0
281
     0
  0
CLASS
  1
AEC_DISP_REP_STAIR_PLAN
  2
AecDbDispRepStairPlan
  3
AecArchBase70|Product Desc: Autodesk Architectural Desktop 2007 |Company: Autodesk,Inc. |WEB Address: www.autodesk.com
 90
      129
 91
        1
280
     0
281
     0
  0
CLASS
  1
AEC_DISP_REP_SPACE_RCP
  2
AecDbDispRepSpaceRcp
  3
AecArchBase70|Product Desc: Autodesk Architectural Desktop 2007 |Company: Autodesk,Inc. |WEB Address: www.autodesk.com
 90
      129
 91
        1
280
     0
281
     0
  0
CLASS
  1
AEC_DISP_REP_SPACE_DECOMPOSED
  2
AecDbDispRepSpaceDecomposed
  3
AecArchBase70|Product Desc: Autodesk Architectural Desktop 2007 |Company: Autodesk,Inc. |WEB Address: www.autodesk.com
 90
      129
 91
        1
280
     0
281
     0
  0
CLASS
  1
AEC_DISP_PROPS_SPACE_DECOMPOSED
  2
AecDbDispPropsSpaceDecomposed
  3
AecArchBase70|Product Desc: Autodesk Architectural Desktop 2007 |Company: Autodesk,Inc. |WEB Address: www.autodesk.com
 90
      129
 91
        1
280
     0
281
     0
  0
CLASS
  1
AEC_DISP_REP_ROOFSLAB_MODEL
  2
AecDbDispRepRoofSlabModel
  3
AecArchBase70|Product Desc: Autodesk Architectural Desktop 2007 |Company: Autodesk,Inc. |WEB Address: www.autodesk.com
 90
      129
 91
        1
280
     0
281
     0
  0
CLASS
  1
AEC_DISP_PROPS_ROOFSLAB
  2
AecDbDispPropsRoofSlab
  3
AecArchBase70|Product Desc: Autodesk Architectural Desktop 2007 |Company: Autodesk,Inc. |WEB Address: www.autodesk.com
 90
      129
 91
        1
280
     0
281
     0
  0
CLASS
  1
AEC_DISP_REP_STAIR_PLAN_100
  2
AecDbDispRepStairPlan100
  3
AecArchBase70|Product Desc: Autodesk Architectural Desktop 2007 |Company: Autodesk,Inc. |WEB Address: www.autodesk.com
 90
      129
 91
        1
280
     0
281
     0
  0
CLASS
  1
AEC_DISP_ROPS_STAIR_PLAN_100
  2
AecDbDispPropsStairPlan100
  3
AecArchBase70|Product Desc: Autodesk Architectural Desktop 2007 |Company: Autodesk,Inc. |WEB Address: www.autodesk.com
 90
      129
 91
        1
280
     0
281
     0
  0
CLASS
  1
AEC_DISP_REP_SPACE_MODEL
  2
AecDbDispRepSpaceModel
  3
AecArchBase70|Product Desc: Autodesk Architectural Desktop 2007 |Company: Autodesk,Inc. |WEB Address: www.autodesk.com
 90
      129
 91
        1
280
     0
281
     0
  0
CLASS
  1
AEC_DISP_PROPS_SPACE_MODEL
  2
AecDbDispPropsSpaceModel
  3
AecArchBase70|Product Desc: Autodesk Architectural Desktop 2007 |Company: Autodesk,Inc. |WEB Address: www.autodesk.com
 90
      129
 91
        1
280
     0
281
     0
  0
CLASS
  1
AEC_DISP_REP_SPACE_VOLUME
  2
AecDbDispRepSpaceVolume
  3
AecArchBase70|Product Desc: Autodesk Architectural Desktop 2007 |Company: Autodesk,Inc. |WEB Address: www.autodesk.com
 90
      129
 91
        1
280
     0
281
     0
  0
CLASS
  1
AEC_DISP_REP_STAIR_PLAN_50
  2
AecDbDispRepStairPlan50
  3
AecArchBase70|Product Desc: Autodesk Architectural Desktop 2007 |Company: Autodesk,Inc. |WEB Address: www.autodesk.com
 90
      129
 91
        1
280
     0
281
     0
  0
CLASS
  1
AEC_DISP_ROPS_STAIR_PLAN_50
  2
AecDbDispPropsStairPlan50
  3
AecArchBase70|Product Desc: Autodesk Architectural Desktop 2007 |Company: Autodesk,Inc. |WEB Address: www.autodesk.com
 90
      129
 91
        1
280
     0
281
     0
  0
CLASS
  1
AEC_DISP_REP_SLAB_MODEL
  2
AecDbDispRepSlabModel
  3
AecArchBase70|Product Desc: Autodesk Architectural Desktop 2007 |Company: Autodesk,Inc. |WEB Address: www.autodesk.com
 90
      129
 91
        1
280
     0
281
     0
  0
CLASS
  1
AEC_DISP_PROPS_SLAB
  2
AecDbDispPropsSlab
  3
AecArchBase70|Product Desc: Autodesk Architectural Desktop 2007 |Company: Autodesk,Inc. |WEB Address: www.autodesk.com
 90
      129
 91
        1
280
     0
281
     0
  0
CLASS
  1
AECS_DISP_REP_MEMBER_MODEL_DETAIL
  2
AecsDbDispRepMemberModelDetail
  3
AecArchBase70|Product Desc: Autodesk Architectural Desktop 2007 |Company: Autodesk,Inc. |WEB Address: www.autodesk.com
 90
      129
 91
        1
280
     0
281
     0
  0
CLASS
  1
AECS_DISP_PROPS_MEMBER
  2
AecsDbDispPropsMember
  3
AecArchBase70|Product Desc: Autodesk Architectural Desktop 2007 |Company: Autodesk,Inc. |WEB Address: www.autodesk.com
 90
      129
 91
        2
280
     0
281
     0
  0
CLASS
  1
AECS_DISP_REP_MEMBER_LOGICAL
  2
AecsDbDispRepMemberLogical
  3
AecArchBase70|Product Desc: Autodesk Architectural Desktop 2007 |Company: Autodesk,Inc. |WEB Address: www.autodesk.com
 90
      129
 91
        1
280
     0
281
     0
  0
CLASS
  1
AECS_DISP_PROPS_MEMBER_LOGICAL
  2
AecsDbDispPropsMemberLogical
  3
AecArchBase70|Product Desc: Autodesk Architectural Desktop 2007 |Company: Autodesk,Inc. |WEB Address: www.autodesk.com
 90
      129
 91
        1
280
     0
281
     0
  0
CLASS
  1
AECS_DISP_REP_MEMBER_ELEVATION_DETAIL
  2
AecsDbDispRepMemberElevationDetail
  3
AecArchBase70|Product Desc: Autodesk Architectural Desktop 2007 |Company: Autodesk,Inc. |WEB Address: www.autodesk.com
 90
      129
 91
        1
280
     0
281
     0
  0
CLASS
  1
AECS_DISP_PROPS_MEMBER_PROJECTED
  2
AecsDbDispPropsMemberProjected
  3
AecArchBase70|Product Desc: Autodesk Architectural Desktop 2007 |Company: Autodesk,Inc. |WEB Address: www.autodesk.com
 90
      129
 91
        2
280
     0
281
     0
  0
CLASS
  1
AECS_DISP_REP_MEMBER_MODEL_DESIGN
  2
AecsDbDispRepMemberModelDesign
  3
AecArchBase70|Product Desc: Autodesk Architectural Desktop 2007 |Company: Autodesk,Inc. |WEB Address: www.autodesk.com
 90
      129
 91
        1
280
     0
281
     0
  0
CLASS
  1
AECS_DISP_REP_MEMBER_ELEVATION_DESIGN
  2
AecsDbDispRepMemberElevationDesign
  3
AecArchBase70|Product Desc: Autodesk Architectural Desktop 2007 |Company: Autodesk,Inc. |WEB Address: www.autodesk.com
 90
      129
 91
        1
280
     0
281
     0
  0
CLASS
  1
AECS_DISP_REP_MEMBER_PLAN_DESIGN
  2
AecsDbDispRepMemberPlanDesign
  3
AecArchBase70|Product Desc: Autodesk Architectural Desktop 2007 |Company: Autodesk,Inc. |WEB Address: www.autodesk.com
 90
      129
 91
        1
280
     0
281
     0
  0
CLASS
  1
AECS_DISP_PROPS_MEMBER_PLAN
  2
AecsDbDispPropsMemberPlan
  3
AecArchBase70|Product Desc: Autodesk Architectural Desktop 2007 |Company: Autodesk,Inc. |WEB Address: www.autodesk.com
 90
      129
 91
        2
280
     0
281
     0
  0
CLASS
  1
AECS_DISP_REP_MEMBER_PLAN_DETAIL
  2
AecsDbDispRepMemberPlanDetail
  3
AecArchBase70|Product Desc: Autodesk Architectural Desktop 2007 |Company: Autodesk,Inc. |WEB Address: www.autodesk.com
 90
      129
 91
        1
280
     0
281
     0
  0
CLASS
  1
AECS_DISP_REP_MEMBER_PLAN_SKETCH
  2
AecsDbDispRepMemberPlanSketch
  3
AecArchBase70|Product Desc: Autodesk Architectural Desktop 2007 |Company: Autodesk,Inc. |WEB Address: www.autodesk.com
 90
      129
 91
        1
280
     0
281
     0
  0
CLASS
  1
AECS_DISP_PROPS_MEMBER_PLAN_SKETCH
  2
AecsDbDispPropsMemberPlanSketch
  3
AecArchBase70|Product Desc: Autodesk Architectural Desktop 2007 |Company: Autodesk,Inc. |WEB Address: www.autodesk.com
 90
      129
 91
        1
280
     0
281
     0
  0
CLASS
  1
AEC_DISP_REP_SCHEDULE_TABLE
  2
AecDbDispRepScheduleTable
  3
AecSchedule70|Product Desc: Autodesk Architectural Desktop 2007 |Company: Autodesk,Inc. |WEB Address: www.autodesk.com
 90
      129
 91
        1
280
     0
281
     0
  0
CLASS
  1
AEC_DISP_PROPS_SCHEDULE_TABLE
  2
AecDbDispPropsScheduleTable
  3
AecSchedule70|Product Desc: Autodesk Architectural Desktop 2007 |Company: Autodesk,Inc. |WEB Address: www.autodesk.com
 90
      129
 91
        1
280
     0
281
     0
  0
CLASS
  1
AEC_DISP_REP_SET
  2
AecDbDispRepSet
  3
AecBase70|Product Desc: Autodesk Architectural Desktop 2007 |Company: Autodesk,Inc. |WEB Address: www.autodesk.com
 90
      129
 91
       10
280
     0
281
     0
  0
CLASS
  1
AEC_DISP_REP_CONFIG
  2
AecDbDispRepConfig
  3
AecBase70|Product Desc: Autodesk Architectural Desktop 2007 |Company: Autodesk,Inc. |WEB Address: www.autodesk.com
 90
      129
 91
        2
280
     0
281
     0
  0
CLASS
  1
AEC_CLEANUP_GROUP_DEF
  2
AecDbCleanupGroupDef
  3
AecArchBase70|Product Desc: Autodesk Architectural Desktop 2007 |Company: Autodesk,Inc. |WEB Address: www.autodesk.com
 90
      129
 91
        1
280
     0
281
     0
  0
CLASS
  1
AEC_LAYERKEY_STYLE
  2
AecDbLayerKeyStyle
  3
AecBase70|Product Desc: Autodesk Architectural Desktop 2007 |Company: Autodesk,Inc. |WEB Address: www.autodesk.com
 90
      129
 91
        1
280
     0
281
     0
  0
CLASS
  1
AEC_VARS_ARCHBASE
  2
AecDbVarsArchBase
  3
AecArchBase70|Product Desc: Autodesk Architectural Desktop 2007 |Company: Autodesk,Inc. |WEB Address: www.autodesk.com
 90
      129
 91
        1
280
     0
281
     0
  0
CLASS
  1
AEC_VARS_STRUCTUREBASE
  2
AecsDbVarsStructureBase
  3
AecArchBase70|Product Desc: Autodesk Architectural Desktop 2007 |Company: Autodesk,Inc. |WEB Address: www.autodesk.com
 90
      129
 91
        1
280
     0
281
     0
  0
CLASS
  1
AEC_VARS_MUNICH
  2
AecDbVarsMunich
  3
AecArchBase70|Product Desc: Autodesk Architectural Desktop 2007 |Company: Autodesk,Inc. |WEB Address: www.autodesk.com
 90
      129
 91
        1
280
     0
281
     0
  0
CLASS
  1
BINRECORD
  2
AcAecBinRecord
  3
AecBase70|Product Desc: Autodesk Architectural Desktop 2007 |Company: Autodesk,Inc. |WEB Address: www.autodesk.com
 90
      129
 91
        1
280
     0
281
     0
  0
CLASS
  1
IMAGE
  2
AcDbRasterImage
  3
ISM
 90
     2175
 91
        0
280
     0
281
     1
  0
CLASS
  1
IMAGEDEF_REACTOR
  2
AcDbRasterImageDefReactor
  3
ISM
 90
        1
 91
        0
280
     0
281
     0
  0
CLASS
  1
IMAGEDEF
  2
AcDbRasterImageDef
  3
ISM
 90
        0
 91
        0
280
     0
281
     0
  0
CLASS
  1
RAPIDRTRENDERSETTINGS
  2
AcDbRapidRTRenderSettings
  3
ObjectDBX Classes
 90
     1024
 91
        2
280
     0
281
     0
  0
CLASS
  1
MENTALRAYRENDERSETTINGS
  2
AcDbMentalRayRenderSettings
  3
SCENEOE
 90
     1024
 91
        1
280
     0
281
     0
  0
ENDSEC
  0
SECTION
  2
TABLES
  0
TABLE
  2
VPORT
  5
8
102
{ACAD_XDICTIONARY
360
B51
102
}
330
0
100
AcDbSymbolTable
 70
     1
  0
VPORT
  5
DAB
330
8
100
AcDbSymbolTableRecord
100
AcDbViewportTableRecord
  2
*Active
 70
     0
 10
0.0
 20
0.0
 11
1.0
 21
1.0
 12
22.36060828717048
 22
-83.34558898105356
 13
0.0
 23
0.0
 14
0.5
 24
0.5
 15
0.5
 25
0.5
 16
0.0
 26
0.0
 36
1.0
 17
0.0
 27
0.0
 37
0.0
 40
63.57578209896679
 41
2.068714632174616
 42
50.0
 43
0.0
 44
0.0
 50
0.0
 51
0.0
 71
     0
 72
  1000
 73
     1
 74
     3
 75
     0
 76
     1
 77
     0
 78
     1
281
     0
 65
     1
110
0.0
120
0.0
130
0.0
111
1.0
121
0.0
131
0.0
112
0.0
122
1.0
132
0.0
 79
     0
146
0.0
348
9F
 60
     2
 61
     5
292
     1
282
     1
141
0.0
142
0.0
 63
   250
421
  3355443
1001
ACAD_NAV_VCDISPLAY
1070
     3
  0
ENDTAB
  0
TABLE
  2
LTYPE
  5
5
330
0
100
AcDbSymbolTable
 70
     2
  0
LTYPE
  5
14
330
5
100
AcDbSymbolTableRecord
100
AcDbLinetypeTableRecord
  2
ByBlock
 70
     0
  3

 72
    65
 73
     0
 40
0.0
  0
LTYPE
  5
15
330
5
100
AcDbSymbolTableRecord
100
AcDbLinetypeTableRecord
  2
ByLayer
 70
     0
  3

 72
    65
 73
     0
 40
0.0
  0
LTYPE
  5
16
330
5
100
AcDbSymbolTableRecord
100
AcDbLinetypeTableRecord
  2
Continuous
 70
     0
  3
Solid line
 72
    65
 73
     0
 40
0.0
  0
LTYPE
  5
A610A
330
5
100
AcDbSymbolTableRecord
100
AcDbLinetypeTableRecord
  2
DASHED
 70
     0
  3
Dashed __ __ __ __ __ __ __ __ __ __ __ __ __ _
 72
    65
 73
     2
 40
0.75
 49
0.5
 74
     0
 49
-0.25
 74
     0
  0
ENDTAB
  0
TABLE
  2
LAYER
  5
2
102
{ACAD_XDICTIONARY
360
E7
102
}
330
0
100
AcDbSymbolTable
 70
    27
  0
LAYER
  5
10
102
{ACAD_XDICTIONARY
360
A6C
102
}
330
2
100
AcDbSymbolTableRecord
100
AcDbLayerTableRecord
  2
0
 70
     0
 62
     7
  6
Continuous
370
    -3
390
F
347
98
348
0
  0
LAYER
  5
9D0
330
2
100
AcDbSymbolTableRecord
100
AcDbLayerTableRecord
  2
Defpoints
 70
     0
 62
     7
  6
Continuous
290
     0
370
    -3
390
F
347
98
348
0
  0
LAYER
  5
9583E
330
2
100
AcDbSymbolTableRecord
100
AcDbLayerTableRecord
  2
HI Fitting
 70
     0
 62
     3
  6
Continuous
370
    -3
390
F
347
98
348
0
1001
AcAecLayerStandard
1000

1000

1001
AcCmTransparency
1071
        0
  0
LAYER
  5
9583F
330
2
100
AcDbSymbolTableRecord
100
AcDbLayerTableRecord
  2
HI Lateral
 70
     0
 62
     2
  6
Continuous
370
    -3
390
F
347
98
348
0
1001
AcAecLayerStandard
1000

1000

1001
AcCmTransparency
1071
        0
  0
LAYER
  5
9588B
330
2
100
AcDbSymbolTableRecord
100
AcDbLayerTableRecord
  2
HI Text
 70
     0
 62
     2
  6
Continuous
370
    -3
390
F
347
98
348
0
1001
AcAecLayerStandard
1000

1000

1001
AcCmTransparency
1071
        0
  0
LAYER
  5
9C87A
330
2
100
AcDbSymbolTableRecord
100
AcDbLayerTableRecord
  2
HI HATCH FILL
 70
     0
 62
     9
  6
Continuous
370
    -3
390
F
347
98
348
0
1001
AcAecLayerStandard
1000

1000

1001
AcCmTransparency
1071
        0
  0
LAYER
  5
9CBA3
330
2
100
AcDbSymbolTableRecord
100
AcDbLayerTableRecord
  2
HI Product Outline
 70
     0
 62
     5
  6
Continuous
370
    -3
390
F
347
98
348
0
1001
AcAecLayerStandard
1000

1000

1001
AcCmTransparency
1071
        0
  0
LAYER
  5
9CBA6
330
2
100
AcDbSymbolTableRecord
100
AcDbLayerTableRecord
  2
HI Lateral Detail
 70
     0
 62
   249
  6
Continuous
370
    -3
390
F
347
98
348
0
1001
AcAecLayerStandard
1000

1000

1001
AcCmTransparency
1071
        0
  0
LAYER
  5
9CBA7
330
2
100
AcDbSymbolTableRecord
100
AcDbLayerTableRecord
  2
HI Deatil 1
 70
     0
 62
     2
  6
Continuous
370
    -3
390
F
347
98
348
0
1001
AcAecLayerStandard
1000

1000

1001
AcCmTransparency
1071
        0
  0
LAYER
  5
9CBA8
330
2
100
AcDbSymbolTableRecord
100
AcDbLayerTableRecord
  2
HI Deatil 2
 70
     0
 62
     1
  6
Continuous
370
    -3
390
F
347
98
348
0
1001
AcAecLayerStandard
1000

1000

1001
AcCmTransparency
1071
        0
  0
LAYER
  5
9CBA9
330
2
100
AcDbSymbolTableRecord
100
AcDbLayerTableRecord
  2
HI Detail 3
 70
     0
 62
   249
  6
Continuous
370
    -3
390
F
347
98
348
0
1001
AcAecLayerStandard
1000

1000

1001
AcCmTransparency
1071
        0
  0
LAYER
  5
9CBAB
330
2
100
AcDbSymbolTableRecord
100
AcDbLayerTableRecord
  2
HI Dimensions
 70
     0
 62
     1
  6
Continuous
370
    -3
390
F
347
98
348
0
1001
AcAecLayerStandard
1000

1000

1001
AcCmTransparency
1071
        0
  0
LAYER
  5
9EC2B
102
{ACAD_XDICTIONARY
360
9EC2C
102
}
330
2
100
AcDbSymbolTableRecord
100
AcDbLayerTableRecord
  2
L-dtl-htch
 70
     0
 62
   212
  6
Continuous
370
     0
390
F
347
98
348
0
1001
AcAecLayerStandard
1000

1000

  0
LAYER
  5
A0E56
330
2
100
AcDbSymbolTableRecord
100
AcDbLayerTableRecord
  2
HI Building Wall
 70
     0
 62
     6
  6
Continuous
370
    25
390
F
347
98
348
0
1001
AcAecLayerStandard
1000

1000

1001
AcCmTransparency
1071
        0
  0
LAYER
  5
A1F94
330
2
100
AcDbSymbolTableRecord
100
AcDbLayerTableRecord
  2
HI Text2
 70
     0
 62
     1
  6
Continuous
370
    -3
390
F
347
98
348
0
1001
AcAecLayerStandard
1000

1000

1001
AcCmTransparency
1071
        0
  0
LAYER
  5
A21B7
330
2
100
AcDbSymbolTableRecord
100
AcDbLayerTableRecord
  2
HI No Print
 70
     0
 62
     7
  6
Continuous
290
     0
370
    -3
390
F
347
98
348
0
1001
AcAecLayerStandard
1000

1000

1001
AcCmTransparency
1071
        0
  0
LAYER
  5
A610B
330
2
100
AcDbSymbolTableRecord
100
AcDbLayerTableRecord
  2
D-OBJECT
 70
     0
 62
     2
  6
Continuous
370
    -3
390
F
347
98
348
0
1001
AcAecLayerStandard
1000

1000

1001
AcCmTransparency
1071
        0
  0
LAYER
  5
A610C
330
2
100
AcDbSymbolTableRecord
100
AcDbLayerTableRecord
  2
D-OBJECT LIGHT
 70
     0
 62
     4
  6
Continuous
370
    -3
390
F
347
98
348
0
1001
AcAecLayerStandard
1000

1000

1001
AcCmTransparency
1071
        0
  0
LAYER
  5
A610D
330
2
100
AcDbSymbolTableRecord
100
AcDbLayerTableRecord
  2
D-OBJECT HEAVY
 70
     0
 62
     3
  6
Continuous
370
    -3
390
F
347
98
348
0
1001
AcAecLayerStandard
1000

1000

1001
AcCmTransparency
1071
        0
  0
LAYER
  5
A610E
330
2
100
AcDbSymbolTableRecord
100
AcDbLayerTableRecord
  2
D-TEXT
 70
     0
 62
     2
  6
Continuous
370
    -3
390
F
347
98
348
0
1001
AcAecLayerStandard
1000

1000

1001
AcCmTransparency
1071
        0
  0
LAYER
  5
A610F
330
2
100
AcDbSymbolTableRecord
100
AcDbLayerTableRecord
  2
D-LEADER
 70
     0
 62
     2
  6
Continuous
370
    -3
390
F
347
98
348
0
1001
AcAecLayerStandard
1000

1000

1001
AcCmTransparency
1071
        0
  0
LAYER
  5
A6110
330
2
100
AcDbSymbolTableRecord
100
AcDbLayerTableRecord
  2
D-HATCH
 70
     0
 62
     1
  6
Continuous
370
    -3
390
F
347
98
348
0
1001
AcAecLayerStandard
1000

1000

1001
AcCmTransparency
1071
        0
  0
LAYER
  5
A6111
330
2
100
AcDbSymbolTableRecord
100
AcDbLayerTableRecord
  2
D-DASHED LIGHT
 70
     0
 62
     4
  6
DASHED
370
    -3
390
F
347
98
348
0
1001
AcAecLayerStandard
1000

1000

1001
AcCmTransparency
1071
        0
  0
LAYER
  5
A6112
330
2
100
AcDbSymbolTableRecord
100
AcDbLayerTableRecord
  2
D-HATCH SCREENED
 70
     0
 62
     8
  6
Continuous
370
    -3
390
F
347
98
348
0
1001
AcAecLayerStandard
1000

1000

1001
AcCmTransparency
1071
        0
  0
LAYER
  5
AB757
330
2
100
AcDbSymbolTableRecord
100
AcDbLayerTableRecord
  2
D-PLANTS
 70
     0
 62
     4
  6
Continuous
370
    -3
390
F
347
98
348
0
1001
AcAecLayerStandard
1000

1000

1001
AcCmTransparency
1071
        0
  0
LAYER
  5
ABF9B
330
2
100
AcDbSymbolTableRecord
100
AcDbLayerTableRecord
  2
D-OBJECT SCREENED
 70
     0
 62
   253
  6
Continuous
370
    -3
390
F
347
98
348
0
1001
AcCmTransparency
1071
        0
1001
AcAecLayerStandard
1000

1000

  0
LAYER
  5
AE1AE
102
{ACAD_XDICTIONARY
360
AE1AF
102
}
330
2
100
AcDbSymbolTableRecord
100
AcDbLayerTableRecord
  2
LK-IRRG-025M
 70
     0
 62
     4
  6
Continuous
370
    -3
390
F
347
98
348
0
  0
ENDTAB
  0
TABLE
  2
STYLE
  5
3
330
0
100
AcDbSymbolTable
 70
     5
  0
STYLE
  5
11
330
3
100
AcDbSymbolTableRecord
100
AcDbTextStyleTableRecord
  2
Standard
 70
     0
 40
0.0
 41
1.0
 50
0.0
 71
     0
 42
12.10402048440558
  3
arial.ttf
  4

1001
ACAD
1000
Arial
1071
       34
  0
STYLE
  5
1BACD
330
3
100
AcDbSymbolTableRecord
100
AcDbTextStyleTableRecord
  2
DIMS
 70
     0
 40
0.0
 41
1.0
 50
0.0
 71
     0
 42
0.2
  3
arial.ttf
  4

1001
ACAD
1000
Arial
1071
       34
  0
STYLE
  5
5DCD6
330
3
100
AcDbSymbolTableRecord
100
AcDbTextStyleTableRecord
  2
Hunter
 70
     0
 40
0.0
 41
0.7
 50
0.0
 71
     0
 42
0.09375
  3
romans.shx
  4

  0
STYLE
  5
78DB5
330
3
100
AcDbSymbolTableRecord
100
AcDbTextStyleTableRecord
  2
STYLE1
 70
     0
 40
0.0
 41
1.0
 50
0.0
 71
     0
 42
0.2
  3
txt
  4

  0
STYLE
  5
A6113
330
3
100
AcDbSymbolTableRecord
100
AcDbTextStyleTableRecord
  2
romand
 70
     0
 40
0.25
 41
1.0
 50
0.0
 71
     0
 42
0.25
  3
romand.shx
  4

  0
ENDTAB
  0
TABLE
  2
VIEW
  5
6
330
0
100
AcDbSymbolTable
 70
     0
  0
ENDTAB
  0
TABLE
  2
UCS
  5
7
330
0
100
AcDbSymbolTable
 70
     0
  0
ENDTAB
  0
TABLE
  2
APPID
  5
9
330
0
100
AcDbSymbolTable
 70
    18
  0
APPID
  5
12
330
9
100
AcDbSymbolTableRecord
100
AcDbRegAppTableRecord
  2
ACAD
 70
     0
  0
APPID
  5
BE
330
9
100
AcDbSymbolTableRecord
100
AcDbRegAppTableRecord
  2
ACAD_PSEXT
 70
     0
  0
APPID
  5
DBF
330
9
100
AcDbSymbolTableRecord
100
AcDbRegAppTableRecord
  2
AcAecLayerStandard
 70
     0
  0
APPID
  5
FEF2
330
9
100
AcDbSymbolTableRecord
100
AcDbRegAppTableRecord
  2
ACAD_DSTYLE_DIMJOGGED_JOGANGLE_SYMBOL
 70
     0
  0
APPID
  5
1BACF
330
9
100
AcDbSymbolTableRecord
100
AcDbRegAppTableRecord
  2
ACAD_DSTYLE_DIMJAG
 70
     0
  0
APPID
  5
1BAD0
330
9
100
AcDbSymbolTableRecord
100
AcDbRegAppTableRecord
  2
ACAD_DSTYLE_DIMTALN
 70
     0
  0
APPID
  5
5B55B
330
9
100
AcDbSymbolTableRecord
100
AcDbRegAppTableRecord
  2
ACAD_NAV_VCDISPLAY
 70
     0
  0
APPID
  5
5C537
330
9
100
AcDbSymbolTableRecord
100
AcDbRegAppTableRecord
  2
AEC_OBJVER_INFO
 70
     0
  0
APPID
  5
95767
330
9
100
AcDbSymbolTableRecord
100
AcDbRegAppTableRecord
  2
AcCmTransparency
 70
     0
  0
APPID
  5
9C807
330
9
100
AcDbSymbolTableRecord
100
AcDbRegAppTableRecord
  2
AEC_XDATA_BOUND_SPACE
 70
     0
  0
APPID
  5
9C925
330
9
100
AcDbSymbolTableRecord
100
AcDbRegAppTableRecord
  2
GradientColor1ACI
 70
     0
  0
APPID
  5
9C926
330
9
100
AcDbSymbolTableRecord
100
AcDbRegAppTableRecord
  2
GradientColor2ACI
 70
     0
  0
APPID
  5
A0A0A
330
9
100
AcDbSymbolTableRecord
100
AcDbRegAppTableRecord
  2
ACAD_MLEADERVER
 70
     0
  0
APPID
  5
A0A2C
330
9
100
AcDbSymbolTableRecord
100
AcDbRegAppTableRecord
  2
ManulPointsAssociative
 70
     0
  0
APPID
  5
A0A2D
330
9
100
AcDbSymbolTableRecord
100
AcDbRegAppTableRecord
  2
LandFX
 70
     0
  0
APPID
  5
A0DDB
330
9
100
AcDbSymbolTableRecord
100
AcDbRegAppTableRecord
  2
ACAD_EXEMPT_FROM_CAD_STANDARDS
 70
     0
  0
APPID
  5
A3AA6
330
9
100
AcDbSymbolTableRecord
100
AcDbRegAppTableRecord
  2
ACAD_DSTYLE_DIMRADIAL_EXTENSION
 70
     0
  0
APPID
  5
AE1B0
330
9
100
AcDbSymbolTableRecord
100
AcDbRegAppTableRecord
  2
LANDTECH
 70
     0
  0
ENDTAB
  0
TABLE
  2
DIMSTYLE
  5
A
330
0
100
AcDbSymbolTable
 70
     3
100
AcDbDimStyleTable
 71
     3
340
9EC41
340
1BACE
340
27
  0
DIMSTYLE
105
27
330
A
100
AcDbSymbolTableRecord
100
AcDbDimStyleTableRecord
  2
Standard
 70
     0
340
11
  0
DIMSTYLE
105
1BACE
330
A
100
AcDbSymbolTableRecord
100
AcDbDimStyleTableRecord
  2
LandMatters
 70
     0
 41
0.125
 49
0.18
 73
     0
 74
     0
140
0.125
141
0.0750000000000001
147
0.095
174
     1
176
     2
177
     2
178
     2
271
     3
272
     3
277
     4
279
     1
289
     1
340
1BACD
342
1BAAE
1001
ACAD_DSTYLE_DIMJOGGED_JOGANGLE_SYMBOL
1070
   384
1040
0.7853981633974483
1001
ACAD_DSTYLE_DIMJAG
1070
   388
1040
1.5
1001
ACAD_DSTYLE_DIMTALN
1070
   392
1070
     0
  0
DIMSTYLE
105
9EC41
330
A
100
AcDbSymbolTableRecord
100
AcDbDimStyleTableRecord
  2
HUNTER-1.5INCH
 70
     0
 41
1.0
 42
0.05
 43
0.505
 44
0.675
 46
0.675
 73
     0
 74
     0
 78
     3
140
1.0
144
0.9999999999999998
147
0.04
172
     1
176
   256
177
   256
178
   256
271
     0
272
     0
277
     4
279
     2
289
     1
340
5DCD6
341
9EC11
342
1BAAE
371
    -1
  0
ENDTAB
  0
TABLE
  2
BLOCK_RECORD
  5
1
330
0
100
AcDbSymbolTable
 70
     7
  0
BLOCK_RECORD
  5
1F
102
{ACAD_XDICTIONARY
360
A62
102
}
330
1
100
AcDbSymbolTableRecord
100
AcDbBlockTableRecord
  2
*Model_Space
340
22
 70
     0
280
     1
281
     0
  0
BLOCK_RECORD
  5
A21B8
330
1
100
AcDbSymbolTableRecord
100
AcDbBlockTableRecord
  2
*Paper_Space
340
A21B9
 70
     0
280
     1
281
     0
  0
BLOCK_RECORD
  5
1BAAE
330
1
100
AcDbSymbolTableRecord
100
AcDbBlockTableRecord
  2
_ARCHTICK
340
0
 70
     0
280
     1
281
     0
  0
BLOCK_RECORD
  5
9EC11
330
1
100
AcDbSymbolTableRecord
100
AcDbBlockTableRecord
  2
_Open90
340
0
 70
     0
280
     1
281
     0
  0
BLOCK_RECORD
  5
A024C
330
1
100
AcDbSymbolTableRecord
100
AcDbBlockTableRecord
  2
_Integral
340
0
 70
     0
280
     1
281
     0
  0
BLOCK_RECORD
  5
A21A0
330
1
100
AcDbSymbolTableRecord
100
AcDbBlockTableRecord
  2
*Paper_Space3
340
A21A1
 70
     0
280
     1
281
     0
  0
BLOCK_RECORD
  5
A3B49
330
1
100
AcDbSymbolTableRecord
100
AcDbBlockTableRecord
  2
_FILLED
340
0
 70
     0
280
     1
281
     0
  0
BLOCK_RECORD
  5
AE1B1
330
1
100
AcDbSymbolTableRecord
100
AcDbBlockTableRecord
  2
LAFX-90EL-SLSL
340
0
 70
     0
280
     1
281
     0
  0
BLOCK_RECORD
  5
AE3D7
330
1
100
AcDbSymbolTableRecord
100
AcDbBlockTableRecord
  2
break
340
0
102
{BLKREFS
331
AE3DA
102
}
 70
     1
280
     1
281
     0
  0
ENDTAB
  0
ENDSEC
  0
SECTION
  2
BLOCKS
  0
BLOCK
  5
20
330
1F
100
AcDbEntity
  8
0
100
AcDbBlockBegin
  2
*Model_Space
 70
     0
 10
0.0
 20
0.0
 30
0.0
  3
*Model_Space
  1

  0
ENDBLK
  5
21
330
1F
100
AcDbEntity
  8
0
100
AcDbBlockEnd
  0
BLOCK
  5
A21BA
330
A21B8
100
AcDbEntity
 67
     1
  8
0
100
AcDbBlockBegin
  2
*Paper_Space
 70
     0
 10
0.0
 20
0.0
 30
0.0
  3
*Paper_Space
  1

  0
ENDBLK
  5
A21BB
330
A21B8
100
AcDbEntity
 67
     1
  8
0
100
AcDbBlockEnd
  0
BLOCK
  5
1BAAF
330
1BAAE
100
AcDbEntity
  8
0
100
AcDbBlockBegin
  2
_ARCHTICK
 70
     0
 10
0.0
 20
0.0
 30
0.0
  3
_ARCHTICK
  1

  0
LWPOLYLINE
  5
1BAB0
330
1BAAE
100
AcDbEntity
  8
0
  6
ByBlock
 62
     0
100
AcDbPolyline
 90
        2
 70
     0
 43
0.15
 10
-0.5
 20
-0.5
 10
0.5
 20
0.5
  0
ENDBLK
  5
1BAB1
330
1BAAE
100
AcDbEntity
  8
0
100
AcDbBlockEnd
  0
BLOCK
  5
9EC12
330
9EC11
100
AcDbEntity
  8
0
100
AcDbBlockBegin
  2
_Open90
 70
     0
 10
0.0
 20
0.0
 30
0.0
  3
_Open90
  1

  0
LINE
  5
9EC13
330
9EC11
100
AcDbEntity
  8
L-dtl-htch
 62
     0
370
    -2
100
AcDbLine
 10
-0.5
 20
0.5
 30
0.0
 11
0.0
 21
0.0
 31
0.0
  0
LINE
  5
9EC14
330
9EC11
100
AcDbEntity
  8
L-dtl-htch
 62
     0
370
    -2
100
AcDbLine
 10
0.0
 20
0.0
 30
0.0
 11
-0.5
 21
-0.5
 31
0.0
  0
LINE
  5
9EC15
330
9EC11
100
AcDbEntity
  8
L-dtl-htch
 62
     0
370
    -2
100
AcDbLine
 10
0.0
 20
0.0
 30
0.0
 11
-1.0
 21
0.0
 31
0.0
  0
ENDBLK
  5
9EC16
330
9EC11
100
AcDbEntity
  8
0
100
AcDbBlockEnd
  0
BLOCK
  5
A024F
330
A024C
100
AcDbEntity
  8
0
100
AcDbBlockBegin
  2
_Integral
 70
     0
 10
0.0
 20
0.0
 30
0.0
  3
_Integral
  1

  0
ARC
  5
A024D
330
A024C
100
AcDbEntity
  8
0
  6
ByBlock
 62
     0
370
    -2
100
AcDbCircle
 10
0.44488802
 20
-0.09133463
 30
0.0
 40
0.4541666700000001
100
AcDbArc
 50
101.9999999980395
 51
167.9999999799193
  0
ARC
  5
A024E
330
A024C
100
AcDbEntity
  8
0
  6
ByBlock
 62
     0
370
    -2
100
AcDbCircle
 10
-0.44488802
 20
0.09133463
 30
0.0
 40
0.4541666700000001
100
AcDbArc
 50
282.0000000215427
 51
348.0000000034225
  0
ENDBLK
  5
A0250
330
A024C
100
AcDbEntity
  8
0
100
AcDbBlockEnd
  0
BLOCK
  5
A21A2
330
A21A0
100
AcDbEntity
 67
     1
  8
0
100
AcDbBlockBegin
  2
*Paper_Space3
 70
     0
 10
0.0
 20
0.0
 30
0.0
  3
*Paper_Space3
  1

  0
VIEWPORT
  5
A21AE
102
{ACAD_XDICTIONARY
360
A21AF
102
}
330
A21A0
100
AcDbEntity
 67
     1
  8
0
100
AcDbViewport
 10
5.923338180057497
 20
3.87567161218564
 30
0.0
 40
22.96829409361528
 41
11.10268846963739
 68
     0
 69
     0
 12
5.923338180057497
 22
3.87567161218564
 13
0.0
 23
0.0
 14
0.5
 24
0.5
 15
0.5
 25
0.5
 16
0.0
 26
0.0
 36
1.0
 17
0.0
 27
0.0
 37
0.0
 42
50.0
 43
0.0
 44
0.0
 45
11.10268846963739
 50
0.0
 51
0.0
 72
  1000
 90
   819232
  1

281
     0
 71
     1
 74
     0
110
0.0
120
0.0
130
0.0
111
1.0
121
0.0
131
0.0
112
0.0
122
1.0
132
0.0
 79
     0
146
0.0
170
     0
 61
     5
348
9F
292
     1
282
     1
141
0.0
142
0.0
 63
   250
421
  3355443
  0
VIEWPORT
  5
A21B2
102
{ACAD_XDICTIONARY
360
A21B3
102
}
330
A21A0
100
AcDbEntity
 67
     1
  8
HI No Print
100
AcDbViewport
 10
4.807258931670588
 20
4.0197692194672
 30
0.0
 40
9.521960265855952
 41
7.958251408262441
 68
     0
 69
     0
 12
132.6384226626963
 22
-25.54413495007225
 13
0.0
 23
0.0
 14
0.5
 24
0.5
 15
0.5
 25
0.5
 16
0.0
 26
0.0
 36
178.3294139684135
 17
-100.2903367760448
 27
-56.40334146147367
 37
0.0
 42
50.0
 43
0.0
 44
0.0
 45
43.35499707991387
 50
0.0
 51
0.0
 72
  1000
 90
   557664
  1

281
     0
 71
     1
 74
     0
110
0.0
120
0.0
130
0.0
111
1.0
121
0.0
131
0.0
112
0.0
122
1.0
132
0.0
 79
     0
146
0.0
170
     0
 61
     5
348
9F
292
     1
282
     1
141
0.0
142
0.0
 63
   250
421
  3355443
  0
ENDBLK
  5
A21A3
330
A21A0
100
AcDbEntity
 67
     1
  8
0
100
AcDbBlockEnd
  0
BLOCK
  5
A3B4A
330
A3B49
100
AcDbEntity
  8
0
100
AcDbBlockBegin
  2
_FILLED
 70
     0
 10
0.0
 20
0.0
 30
0.0
  3
_FILLED
  1

  0
SOLID
  5
A3B4B
330
A3B49
100
AcDbEntity
  8
0
  6
ByBlock
 62
     0
100
AcDbTrace
 10
0.0
 20
0.0
 30
0.0
 11
-1.0
 21
0.16875
 31
0.0
 12
-1.0
 22
-0.16875
 32
0.0
 13
-1.0
 23
-0.16875
 33
0.0
  0
ENDBLK
  5
A3B4C
330
A3B49
100
AcDbEntity
  8
0
  6
ByBlock
 62
     0
100
AcDbBlockEnd
  0
BLOCK
  5
AE1BA
330
AE1B1
100
AcDbEntity
  8
0
100
AcDbBlockBegin
  2
LAFX-90EL-SLSL
 70
     0
 10
0.0
 20
0.0
 30
0.0
  3
LAFX-90EL-SLSL
  1

  0
LINE
  5
AE1B2
330
AE1B1
100
AcDbEntity
  8
LK-IRRG-025M
100
AcDbLine
 10
0.6813050990954244
 20
0.0145731464300489
 30
0.0
 11
-0.8010426600610056
 21
0.0145731464300489
 31
0.0
  0
ARC
  5
AE1B3
330
AE1B1
100
AcDbEntity
  8
LK-IRRG-025M
100
AcDbCircle
 10
0.0433116563140779
 20
1.382761901014866
 30
0.0
 40
0.8506595227023041
100
AcDbArc
 50
92.94798381309098
 51
173.019636851632
  0
LINE
  5
AE1B4
330
AE1B1
100
AcDbEntity
  8
LK-IRRG-025M
100
AcDbLine
 10
-0.8010426600610056
 20
0.0145731464300489
 30
0.0
 11
-0.8010426600610056
 21
1.48614184095912
 31
0.0
  0
LINE
  5
AE1B5
330
AE1B1
100
AcDbEntity
  8
LK-IRRG-025M
100
AcDbLine
 10
1.406332670756085
 20
2.232295692044512
 30
0.0
 11
1.406332670756085
 21
0.741267751305383
 31
0.0
  0
LINE
  5
AE1B6
330
AE1B1
100
AcDbEntity
  8
LK-IRRG-025M
100
AcDbLine
 10
1.406332670756085
 20
0.741267751305383
 30
0.0
 11
0.6813050990954244
 21
0.741267751305383
 31
0.0
  0
LINE
  5
AE1B7
330
AE1B1
100
AcDbEntity
  8
LK-IRRG-025M
100
AcDbLine
 10
0.6813050990954244
 20
0.7416243756811128
 30
0.0
 11
0.6813050990954244
 21
0.0145731464300489
 31
0.0
  0
LINE
  5
AE1B8
330
AE1B1
100
AcDbEntity
  8
LK-IRRG-025M
100
AcDbLine
 10
0.6813050990954244
 20
0.741267751305383
 30
0.0
 11
0.6813050990954244
 21
0.7416243756811128
 31
0.0
  0
LINE
  5
AE1B9
330
AE1B1
100
AcDbEntity
  8
LK-IRRG-025M
100
AcDbLine
 10
-0.0004371889610599
 20
2.232295692044512
 30
0.0
 11
1.406332670756085
 21
2.232295692044512
 31
0.0
  0
ENDBLK
  5
AE1BB
330
AE1B1
100
AcDbEntity
  8
0
100
AcDbBlockEnd
  0
BLOCK
  5
AE3D8
330
AE3D7
100
AcDbEntity
  8
0
100
AcDbBlockBegin
  2
break
 70
     0
 10
0.0
 20
0.0
 30
0.0
  3
break
  1

  0
ENDBLK
  5
AE3D9
330
AE3D7
100
AcDbEntity
  8
0
100
AcDbBlockEnd
  0
ENDSEC
  0
SECTION
  2
ENTITIES
  0
INSERT
  5
AE3DA
330
1F
100
AcDbEntity
  8
0
100
AcDbBlockReference
  2
break
 10
0.0
 20
0.0
 30
0.0
  0
HATCH
  5
AE51A
330
1F
100
AcDbEntity
  8
HI HATCH FILL
100
AcDbHatch
 10
0.0
 20
0.0
 30
0.0
210
0.0
220
0.0
230
1.0
  2
EARTH
 70
     0
 71
     0
 91
        1
 92
        1
 93
      222
 72
     1
 10
13.61061611808371
 20
-79.98661858005201
 11
14.70792521064156
 21
-80.90737023490477
 72
     1
 10
14.70792521064156
 20
-80.90737023490477
 11
15.79441269942961
 21
-81.81904148602555
 72
     1
 10
15.79441269942961
 20
-81.81904148602555
 11
14.64905370434023
 21
-82.78011179637063
 72
     1
 10
14.64905370434023
 20
-82.78011179637063
 11
14.64905370434022
 21
-88.13246321374053
 72
     1
 10
14.64905370434022
 20
-88.13246321374053
 11
14.64905370434022
 21
-88.27127241595487
 72
     1
 10
14.64905370434022
 20
-88.27127241595487
 11
16.87731517049807
 21
-88.1398413457623
 72
     1
 10
16.87731517049807
 20
-88.1398413457623
 11
19.47471183198153
 21
-88.72927493832083
 72
     1
 10
19.47471183198153
 20
-88.72927493832083
 11
20.83659131155574
 21
-88.86961608422462
 72
     1
 10
20.83659131155574
 20
-88.86961608422462
 11
22.56350921968969
 21
-89.90814163608616
 72
     1
 10
22.56350921968969
 20
-89.90814163608616
 11
23.26550884987265
 21
-90.60984785295671
 72
     1
 10
23.26550884987265
 20
-90.60984785295671
 11
24.40274785673027
 21
-90.98876948298368
 72
     1
 10
24.40274785673027
 20
-90.98876948298368
 11
25.51144270080253
 21
-91.05964062369935
 72
     1
 10
25.51144270080253
 20
-91.05964062369935
 11
26.65132472218094
 21
-90.66577192353987
 72
     1
 10
26.65132472218094
 20
-90.66577192353987
 11
27.32681047393445
 21
-89.84990069652974
 72
     1
 10
27.32681047393445
 20
-89.84990069652974
 11
28.01093261128136
 21
-88.85781788921146
 72
     1
 10
28.01093261128136
 20
-88.85781788921146
 11
28.47553800702462
 21
-88.48524046655624
 72
     1
 10
28.47553800702462
 20
-88.48524046655624
 11
29.53346901365831
 21
-88.05697312536732
 72
     1
 10
29.53346901365831
 20
-88.05697312536732
 11
30.55362226658278
 21
-87.48668800822111
 72
     1
 10
30.55362226658278
 20
-87.48668800822111
 11
33.02034698546123
 21
-87.48668800822111
 72
     1
 10
33.02034698546123
 20
-87.48668800822111
 11
35.31395600200525
 21
-87.24755340545618
 72
     1
 10
35.31395600200525
 20
-87.24755340545618
 11
35.31395600200526
 21
-82.78011179637063
 72
     1
 10
35.31395600200526
 20
-82.78011179637063
 11
36.45931499709463
 21
-81.81904148602555
 72
     1
 10
36.45931499709463
 20
-81.81904148602555
 11
34.27551841574874
 21
-79.98661858005201
 72
     1
 10
34.27551841574874
 20
-79.98661858005201
 11
33.51777759078402
 21
-79.98661858005201
 72
     1
 10
33.51777759078402
 20
-79.98661858005201
 11
33.42096749139656
 21
-80.06600955469274
 72
     1
 10
33.42096749139656
 20
-80.06600955469274
 11
33.38706494414934
 21
-80.08528552043317
 72
     1
 10
33.38706494414934
 20
-80.08528552043317
 11
33.34975891105973
 21
-80.09442552003134
 72
     1
 10
33.34975891105973
 20
-80.09442552003134
 11
33.31631069975637
 21
-80.0938728664717
 72
     1
 10
33.31631069975637
 20
-80.0938728664717
 11
33.27687046819852
 21
-80.08240781034032
 72
     1
 10
33.27687046819852
 20
-80.08240781034032
 11
33.25059866776959
 21
-80.06669217249566
 72
     1
 10
33.25059866776959
 20
-80.06669217249566
 11
33.15134461538217
 21
-79.98661858005201
 72
     1
 10
33.15134461538217
 20
-79.98661858005201
 11
31.91450386983746
 21
-79.98661858005201
 72
     1
 10
31.91450386983746
 20
-79.98661858005201
 11
31.81769377044993
 21
-80.06600955469279
 72
     1
 10
31.81769377044993
 20
-80.06600955469279
 11
31.78719211890745
 21
-80.08388488706225
 72
     1
 10
31.78719211890745
 20
-80.08388488706225
 11
31.75621332912341
 21
-80.09307470936159
 72
     1
 10
31.75621332912341
 20
-80.09307470936159
 11
31.71153573186887
 21
-80.09365914166792
 72
     1
 10
31.71153573186887
 20
-80.09365914166792
 11
31.67594498894814
 21
-80.0834582112086
 72
     1
 10
31.67594498894814
 20
-80.0834582112086
 11
31.63381169706843
 21
-80.05579030574656
 72
     1
 10
31.63381169706843
 20
-80.05579030574656
 11
31.54807089443555
 21
-79.98661858005201
 72
     1
 10
31.54807089443555
 20
-79.98661858005201
 11
29.31406366626058
 21
-79.98661858005201
 72
     1
 10
29.31406366626058
 20
-79.98661858005201
 11
29.0802858757342
 21
-80.15981208684705
 72
     1
 10
29.0802858757342
 20
-80.15981208684705
 11
29.07433305044156
 21
-80.16177692219189
 72
     1
 10
29.07433305044156
 20
-80.16177692219189
 11
29.06983462032242
 21
-80.16070799863671
 72
     1
 10
29.06983462032242
 20
-80.16070799863671
 11
29.06565504149392
 21
-80.15674604290936
 72
     1
 10
29.06565504149392
 20
-80.15674604290936
 11
29.06433305044155
 21
-80.15177692219188
 72
     1
 10
29.06433305044155
 20
-80.15177692219188
 11
29.06433305044155
 21
-79.98661858005201
 72
     1
 10
29.06433305044155
 20
-79.98661858005201
 11
28.64004248347815
 21
-79.98661858005201
 72
     1
 10
28.64004248347815
 20
-79.98661858005201
 11
28.64004248347815
 21
-80.00114508842184
 72
     1
 10
28.64004248347815
 20
-80.00114508842184
 11
28.528801659319
 21
-80.00114508842184
 72
     1
 10
28.528801659319
 20
-80.00114508842184
 11
28.528801659319
 21
-79.90392004336484
 72
     1
 10
28.528801659319
 20
-79.90392004336484
 11
27.86612978056333
 21
-79.90387927398007
 72
     1
 10
27.86612978056333
 20
-79.90387927398007
 11
27.86612978056333
 21
-80.3890546734369
 72
     1
 10
27.86612978056333
 20
-80.3890546734369
 11
27.67263602152463
 21
-80.3890546734369
 72
     1
 10
27.67263602152463
 20
-80.3890546734369
 11
27.67263602152463
 21
-80.30958619061198
 72
     1
 10
27.67263602152463
 20
-80.30958619061198
 11
27.56820473662717
 21
-80.30958619061198
 72
     1
 10
27.56820473662717
 20
-80.30958619061198
 11
27.56820473662717
 21
-80.3890546734369
 72
     1
 10
27.56820473662717
 20
-80.3890546734369
 11
27.37471098009676
 21
-80.3890546734369
 72
     1
 10
27.37471098009676
 20
-80.3890546734369
 11
27.37471098009676
 21
-80.24168078772822
 72
     1
 10
27.37471098009676
 20
-80.24168078772822
 11
27.09100051373671
 21
-80.24168078772822
 72
     1
 10
27.09100051373671
 20
-80.24168078772822
 11
27.09100051373671
 21
-80.44905350342665
 72
     1
 10
27.09100051373671
 20
-80.44905350342665
 11
27.08275264069497
 21
-80.46896563038487
 72
     1
 10
27.08275264069497
 20
-80.46896563038487
 11
27.06284051373675
 21
-80.47721350342673
 72
     1
 10
27.06284051373675
 20
-80.47721350342673
 11
26.04734571338796
 21
-80.47721350342673
 72
     1
 10
26.04734571338796
 20
-80.47721350342673
 11
26.04734571338789
 21
-81.49031416570815
 72
     1
 10
26.04734571338789
 20
-81.49031416570815
 11
26.03909784034611
 21
-81.51022629266638
 72
     1
 10
26.03909784034611
 20
-81.51022629266638
 11
26.01918571338789
 21
-81.51847416570811
 72
     1
 10
26.01918571338789
 20
-81.51847416570811
 11
25.81181299768947
 21
-81.51847416570811
 72
     1
 10
25.81181299768947
 20
-81.51847416570811
 11
25.81181299768946
 21
-81.93117342633717
 72
     1
 10
25.81181299768946
 20
-81.93117342633717
 11
25.81181299768947
 21
-82.16585861875834
 72
     1
 10
25.81181299768947
 20
-82.16585861875834
 11
25.96890325717078
 21
-82.35307149985677
 72
     1
 10
25.96890325717078
 20
-82.35307149985677
 11
27.07305260942589
 21
-82.35307149985677
 72
     1
 10
27.07305260942589
 20
-82.35307149985677
 11
27.07305260942589
 21
-82.95604859026283
 72
     1
 10
27.07305260942589
 20
-82.95604859026283
 11
25.96890325717078
 21
-82.95604859026282
 72
     1
 10
25.96890325717078
 20
-82.95604859026282
 11
25.81181299768947
 21
-82.76883570916442
 72
     1
 10
25.81181299768947
 20
-82.76883570916442
 11
25.81181299768946
 21
-83.9464551969346
 72
     1
 10
25.81181299768946
 20
-83.9464551969346
 11
25.81181299768947
 21
-84.27550721514293
 72
     1
 10
25.81181299768947
 20
-84.27550721514293
 11
25.81181299768947
 21
-84.28844776796916
 72
     1
 10
25.81181299768947
 20
-84.28844776796916
 11
25.81181299768946
 21
-84.30425793758672
 72
     1
 10
25.81181299768946
 20
-84.30425793758672
 11
25.81181299768946
 21
-84.32384556858664
 72
     1
 10
25.81181299768946
 20
-84.32384556858664
 11
25.81181299768947
 21
-84.35126834945686
 72
     1
 10
25.81181299768947
 20
-84.35126834945686
 11
25.81181299768946
 21
-84.51681414315244
 72
     1
 10
25.81181299768946
 20
-84.51681414315244
 11
25.81181299768947
 21
-84.57915195577299
 72
     1
 10
25.81181299768947
 20
-84.57915195577299
 11
25.81181299768946
 21
-84.67447303328311
 72
     1
 10
25.81181299768946
 20
-84.67447303328311
 11
25.81181299768947
 21
-84.76225088446403
 72
     1
 10
25.81181299768947
 20
-84.76225088446403
 11
25.81181299768946
 21
-84.98387543562159
 72
     1
 10
25.81181299768946
 20
-84.98387543562159
 11
25.81181299768946
 21
-85.4896633128221
 72
     1
 10
25.81181299768946
 20
-85.4896633128221
 11
25.81181299768946
 21
-85.54451581492594
 72
     1
 10
25.81181299768946
 20
-85.54451581492594
 11
25.81181299768946
 21
-85.63351789304443
 72
     1
 10
25.81181299768946
 20
-85.63351789304443
 11
25.81181299768946
 21
-85.68315706935251
 72
     1
 10
25.81181299768946
 20
-85.68315706935251
 11
25.81181299768946
 21
-85.74468520418212
 72
     1
 10
25.81181299768946
 20
-85.74468520418212
 11
25.81181299768946
 21
-85.80586341115576
 72
     1
 10
25.81181299768946
 20
-85.80586341115576
 11
25.81181299768946
 21
-85.87984677847293
 72
     1
 10
25.81181299768946
 20
-85.87984677847293
 11
25.81181299768947
 21
-85.9810821107804
 72
     1
 10
25.81181299768947
 20
-85.9810821107804
 11
25.81181299768946
 21
-86.26479257714043
 72
     1
 10
25.81181299768946
 20
-86.26479257714043
 11
26.01918571338789
 21
-86.2647925771404
 72
     1
 10
26.01918571338789
 20
-86.2647925771404
 11
26.03909784034611
 21
-86.27304045018219
 72
     1
 10
26.03909784034611
 20
-86.27304045018219
 11
26.04734571338789
 21
-86.29295257714039
 72
     1
 10
26.04734571338789
 20
-86.29295257714039
 11
26.04734571338796
 21
-87.52008221920121
 72
     1
 10
26.04734571338796
 20
-87.52008221920121
 11
26.12888759997029
 21
-87.59286560777713
 72
     1
 10
26.12888759997029
 20
-87.59286560777713
 11
26.21575253115304
 21
-87.68265480360893
 72
     1
 10
26.21575253115304
 20
-87.68265480360893
 11
26.27426600547928
 21
-87.75192361215676
 72
     1
 10
26.27426600547928
 20
-87.75192361215676
 11
26.33950053576445
 21
-87.83974816534831
 72
     1
 10
26.33950053576445
 20
-87.83974816534831
 11
26.39629014779421
 21
-87.92798921489112
 72
     1
 10
26.39629014779421
 20
-87.92798921489112
 11
26.4583335045325
 21
-88.04197921257694
 72
     1
 10
26.4583335045325
 20
-88.04197921257694
 11
26.50028138545061
 21
-88.13438658864985
 72
     1
 10
26.50028138545061
 20
-88.13438658864985
 11
26.5363665286712
 21
-88.2295080950486
 72
     1
 10
26.5363665286712
 20
-88.2295080950486
 11
26.5685068975541
 21
-88.33476414296653
 72
     1
 10
26.5685068975541
 20
-88.33476414296653
 11
26.59297023377761
 21
-88.44013473161693
 72
     1
 10
26.59297023377761
 20
-88.44013473161693
 11
26.60758971813084
 21
-88.52698857855742
 72
     1
 10
26.60758971813084
 20
-88.52698857855742
 11
26.61735875674491
 21
-88.61395957846324
 72
     1
 10
26.61735875674491
 20
-88.61395957846324
 11
26.62262932798558
 21
-88.71164153301709
 72
     1
 10
26.62262932798558
 20
-88.71164153301709
 11
26.62206371658411
 21
-88.80548547039996
 72
     1
 10
26.62206371658411
 20
-88.80548547039996
 11
26.61576508075042
 21
-88.90155049485855
 72
     1
 10
26.61576508075042
 20
-88.90155049485855
 11
26.60371618767702
 21
-88.99694555340843
 72
     1
 10
26.60371618767702
 20
-88.99694555340843
 11
26.57577610059465
 21
-89.13496072820256
 72
     1
 10
26.57577610059465
 20
-89.13496072820256
 11
26.54441265720353
 21
-89.24429836386641
 72
     1
 10
26.54441265720353
 20
-89.24429836386641
 11
26.50577987822459
 21
-89.3500890899285
 72
     1
 10
26.50577987822459
 20
-89.3500890899285
 11
26.44112149839541
 21
-89.48978294822811
 72
     1
 10
26.44112149839541
 20
-89.48978294822811
 11
26.3738628306736
 21
-89.60625184194396
 72
     1
 10
26.3738628306736
 20
-89.60625184194396
 11
26.30357068937368
 21
-89.70802583238995
 72
     1
 10
26.30357068937368
 20
-89.70802583238995
 11
26.22559599836728
 21
-89.80409468932412
 72
     1
 10
26.22559599836728
 20
-89.80409468932412
 11
26.14351507776015
 21
-89.89082889184016
 72
     1
 10
26.14351507776015
 20
-89.89082889184016
 11
26.01554931955361
 21
-90.00357815596814
 72
     1
 10
26.01554931955361
 20
-90.00357815596814
 11
25.93264882983404
 21
-90.06487508663417
 72
     1
 10
25.93264882983404
 20
-90.06487508663417
 11
25.75313918722954
 21
-90.17223653454591
 72
     1
 10
25.75313918722954
 20
-90.17223653454591
 11
25.63126458046
 21
-90.22836813571222
 72
     1
 10
25.63126458046
 20
-90.22836813571222
 11
25.46681745330724
 21
-90.28564855412547
 72
     1
 10
25.46681745330724
 20
-90.28564855412547
 11
25.2840705147915
 21
-90.3269184882161
 72
     1
 10
25.2840705147915
 20
-90.3269184882161
 11
25.13281900305932
 21
-90.34452390063282
 72
     1
 10
25.13281900305932
 20
-90.34452390063282
 11
24.98774504416959
 21
-90.34784246466045
 72
     1
 10
24.98774504416959
 20
-90.34784246466045
 11
24.79724461257849
 21
-90.33212763274468
 72
     1
 10
24.79724461257849
 20
-90.33212763274468
 11
24.65054418379744
 21
-90.30409508715001
 72
     1
 10
24.65054418379744
 20
-90.30409508715001
 11
24.48392344339609
 21
-90.25439012350252
 72
     1
 10
24.48392344339609
 20
-90.25439012350252
 11
24.34588365537807
 21
-90.19748849248443
 72
     1
 10
24.34588365537807
 20
-90.19748849248443
 11
24.22076041249361
 21
-90.13205461301032
 72
     1
 10
24.22076041249361
 20
-90.13205461301032
 11
24.0804279043265
 21
-90.0404295615985
 72
     1
 10
24.0804279043265
 20
-90.0404295615985
 11
23.93974509246111
 21
-89.92483937201381
 72
     1
 10
23.93974509246111
 20
-89.92483937201381
 11
23.80622435228571
 21
-89.78597512022922
 72
     1
 10
23.80622435228571
 20
-89.78597512022922
 11
23.71456734899624
 21
-89.6675558059681
 72
     1
 10
23.71456734899624
 20
-89.6675558059681
 11
23.63649486007436
 21
-89.54476725473691
 72
     1
 10
23.63649486007436
 20
-89.54476725473691
 11
23.56317961393235
 21
-89.40051966889129
 72
     1
 10
23.56317961393235
 20
-89.40051966889129
 11
23.48978161333468
 21
-89.20145325271027
 72
     1
 10
23.48978161333468
 20
-89.20145325271027
 11
23.44633751165236
 21
-89.01276169590031
 72
     1
 10
23.44633751165236
 20
-89.01276169590031
 11
23.4258784249841
 21
-88.81708095765668
 72
     1
 10
23.4258784249841
 20
-88.81708095765668
 11
23.42786453012116
 21
-88.64410542340806
 72
     1
 10
23.42786453012116
 20
-88.64410542340806
 11
23.47117219243649
 21
-88.36507954405503
 72
     1
 10
23.47117219243649
 20
-88.36507954405503
 11
23.53652383067923
 21
-88.16071465986249
 72
     1
 10
23.53652383067923
 20
-88.16071465986249
 11
23.66522002608136
 21
-87.90499000094035
 72
     1
 10
23.66522002608136
 20
-87.90499000094035
 11
23.82648381434981
 21
-87.68855691193268
 72
     1
 10
23.82648381434981
 20
-87.68855691193268
 11
23.91566399295758
 21
-87.59568147150233
 72
     1
 10
23.91566399295758
 20
-87.59568147150233
 11
23.91566399295758
 21
-86.29295257714039
 72
     1
 10
23.91566399295758
 20
-86.29295257714039
 11
23.92391186599944
 21
-86.27304045018219
 72
     1
 10
23.92391186599944
 20
-86.27304045018219
 11
23.94382399295766
 21
-86.2647925771404
 72
     1
 10
23.94382399295766
 20
-86.2647925771404
 11
24.15119670865608
 21
-86.26479257714043
 72
     1
 10
24.15119670865608
 20
-86.26479257714043
 11
24.15119670865608
 21
-85.9810821107804
 72
     1
 10
24.15119670865608
 20
-85.9810821107804
 11
24.15119670865608
 21
-85.91678022362874
 72
     1
 10
24.15119670865608
 20
-85.91678022362874
 11
24.15119670865608
 21
-85.83713285731972
 72
     1
 10
24.15119670865608
 20
-85.83713285731972
 11
24.15119670865608
 21
-85.78758835424997
 72
     1
 10
24.15119670865608
 20
-85.78758835424997
 11
24.15119670865608
 21
-85.69629315084387
 72
     1
 10
24.15119670865608
 20
-85.69629315084387
 11
24.15119670865608
 21
-85.60984674392773
 72
     1
 10
24.15119670865608
 20
-85.60984674392773
 11
24.15119670865608
 21
-85.4896633128221
 72
     1
 10
24.15119670865608
 20
-85.4896633128221
 11
24.15119670865608
 21
-85.25220482926659
 72
     1
 10
24.15119670865608
 20
-85.25220482926659
 11
24.15119670865608
 21
-84.93851373383483
 72
     1
 10
24.15119670865608
 20
-84.93851373383483
 11
24.15119670865608
 21
-84.84506164928076
 72
     1
 10
24.15119670865608
 20
-84.84506164928076
 11
24.15119670865608
 21
-84.74799244198379
 72
     1
 10
24.15119670865608
 20
-84.74799244198379
 11
24.15119670865608
 21
-84.61052764456132
 72
     1
 10
24.15119670865608
 20
-84.61052764456132
 11
24.15119670865608
 21
-84.44904665316869
 72
     1
 10
24.15119670865608
 20
-84.44904665316869
 11
24.15119670865608
 21
-84.35661751938766
 72
     1
 10
24.15119670865608
 20
-84.35661751938766
 11
24.15119670865608
 21
-84.31202437089723
 72
     1
 10
24.15119670865608
 20
-84.31202437089723
 11
24.15119670865608
 21
-84.28146004043558
 72
     1
 10
24.15119670865608
 20
-84.28146004043558
 11
24.15119670865608
 21
-84.22462129301038
 72
     1
 10
24.15119670865608
 20
-84.22462129301038
 11
24.15119670865608
 21
-83.72296896309331
 72
     1
 10
24.15119670865608
 20
-83.72296896309331
 11
24.15119670865608
 21
-83.08050827096712
 72
     1
 10
24.15119670865608
 20
-83.08050827096712
 11
24.04676263648066
 21
-82.95604859026282
 72
     1
 10
24.04676263648066
 20
-82.95604859026282
 11
22.86797608532488
 21
-82.95604859026282
 72
     1
 10
22.86797608532488
 20
-82.95604859026282
 11
22.86797608532488
 21
-82.35307149985677
 72
     1
 10
22.86797608532488
 20
-82.35307149985677
 11
24.04676263648065
 21
-82.35307149985676
 72
     1
 10
24.04676263648065
 20
-82.35307149985676
 11
24.15119670865608
 21
-82.47753118056108
 72
     1
 10
24.15119670865608
 20
-82.47753118056108
 11
24.15119670865608
 21
-81.93117342633717
 72
     1
 10
24.15119670865608
 20
-81.93117342633717
 11
24.15119670865608
 21
-81.51847416570811
 72
     1
 10
24.15119670865608
 20
-81.51847416570811
 11
23.94382399295766
 21
-81.51847416570815
 72
     1
 10
23.94382399295766
 20
-81.51847416570815
 11
23.92391186599944
 21
-81.51022629266638
 72
     1
 10
23.92391186599944
 20
-81.51022629266638
 11
23.91566399295765
 21
-81.49031416570815
 72
     1
 10
23.91566399295765
 20
-81.49031416570815
 11
23.91566399295765
 21
-80.47721350342673
 72
     1
 10
23.91566399295765
 20
-80.47721350342673
 11
22.90016919260879
 21
-80.47721350342666
 72
     1
 10
22.90016919260879
 20
-80.47721350342666
 11
22.88025706565058
 21
-80.46896563038487
 72
     1
 10
22.88025706565058
 20
-80.46896563038487
 11
22.87200919260884
 21
-80.44905350342665
 72
     1
 10
22.87200919260884
 20
-80.44905350342665
 11
22.87200919260884
 21
-80.24168078772822
 72
     1
 10
22.87200919260884
 20
-80.24168078772822
 11
22.58829872624879
 21
-80.24168078772822
 72
     1
 10
22.58829872624879
 20
-80.24168078772822
 11
22.58829872624879
 21
-80.3890546734369
 72
     1
 10
22.58829872624879
 20
-80.3890546734369
 11
22.39480496971837
 21
-80.3890546734369
 72
     1
 10
22.39480496971837
 20
-80.3890546734369
 11
22.39480496971837
 21
-80.30958619061198
 72
     1
 10
22.39480496971837
 20
-80.30958619061198
 11
22.29037368482091
 21
-80.30958619061198
 72
     1
 10
22.29037368482091
 20
-80.30958619061198
 11
22.29037368482091
 21
-80.3890546734369
 72
     1
 10
22.29037368482091
 20
-80.3890546734369
 11
22.0968799282905
 21
-80.3890546734369
 72
     1
 10
22.0968799282905
 20
-80.3890546734369
 11
22.09689758869225
 21
-79.90392004315274
 72
     1
 10
22.09689758869225
 20
-79.90392004315274
 11
21.43420804702655
 21
-79.90392004336486
 72
     1
 10
21.43420804702655
 20
-79.90392004336486
 11
21.43420804702655
 21
-80.00114508842184
 72
     1
 10
21.43420804702655
 20
-80.00114508842184
 11
21.3229672228674
 21
-80.00114508842184
 72
     1
 10
21.3229672228674
 20
-80.00114508842184
 11
21.3229672228674
 21
-79.98661858005201
 72
     1
 10
21.3229672228674
 20
-79.98661858005201
 11
20.89867665590399
 21
-79.98661858005201
 72
     1
 10
20.89867665590399
 20
-79.98661858005201
 11
20.89867665590399
 21
-80.15177692219188
 72
     1
 10
20.89867665590399
 20
-80.15177692219188
 11
20.89623913890719
 21
-80.15831976949456
 72
     1
 10
20.89623913890719
 20
-80.15831976949456
 11
20.88867665590399
 21
-80.16177692219189
 72
     1
 10
20.88867665590399
 20
-80.16177692219189
 11
20.88272383061135
 21
-80.15981208684705
 72
     1
 10
20.88272383061135
 20
-80.15981208684705
 11
20.64894604008497
 21
-79.98661858005201
 72
     1
 10
20.64894604008497
 20
-79.98661858005201
 11
18.41493881190999
 21
-79.98661858005201
 72
     1
 10
18.41493881190999
 20
-79.98661858005201
 11
18.31568475952244
 21
-80.06669217249577
 72
     1
 10
18.31568475952244
 20
-80.06669217249577
 11
18.27628190972153
 21
-80.08764323470849
 72
     1
 10
18.27628190972153
 20
-80.08764323470849
 11
18.23038488756684
 21
-80.09516758740776
 72
     1
 10
18.23038488756684
 20
-80.09516758740776
 11
18.18460227141921
 21
-80.08729412160738
 72
     1
 10
18.18460227141921
 20
-80.08729412160738
 11
18.14531593589561
 21
-80.06600955469279
 72
     1
 10
18.14531593589561
 20
-80.06600955469279
 11
18.04850583650809
 21
-79.98661858005201
 72
     1
 10
18.04850583650809
 20
-79.98661858005201
 11
16.81166509096338
 21
-79.98661858005201
 72
     1
 10
16.81166509096338
 20
-79.98661858005201
 11
16.71241103857675
 21
-80.06669217249507
 72
     1
 10
16.71241103857675
 20
-80.06669217249507
 11
16.67112801914039
 21
-80.08827033875212
 72
     1
 10
16.67112801914039
 20
-80.08827033875212
 11
16.63744790652951
 21
-80.09482784603248
 72
     1
 10
16.63744790652951
 20
-80.09482784603248
 11
16.59910772222325
 21
-80.09223022145226
 72
     1
 10
16.59910772222325
 20
-80.09223022145226
 11
16.55952962707696
 21
-80.07751071387847
 72
     1
 10
16.55952962707696
 20
-80.07751071387847
 11
16.53074660216936
 21
-80.05674637127063
 72
     1
 10
16.53074660216936
 20
-80.05674637127063
 11
16.44523211556152
 21
-79.98661858005201
 72
     1
 10
16.44523211556152
 20
-79.98661858005201
 11
13.61061611808371
 21
-79.98661858005201
 97
        0
 75
     1
 76
     1
 52
0.0
 41
5.0
 77
     0
 78
     6
 53
0.0
 43
9.451448257899595
 44
-91.05964062369935
 45
1.25
 46
1.25
 79
     2
 49
1.25
 49
-1.25
 53
0.0
 43
9.451448257899595
 44
-90.59089062369935
 45
1.25
 46
1.25
 79
     2
 49
1.25
 49
-1.25
 53
0.0
 43
9.451448257899595
 44
-90.12214062369935
 45
1.25
 46
1.25
 79
     2
 49
1.25
 49
-1.25
 53
90.0
 43
9.607698257899595
 44
-89.96589062369935
 45
-1.249999999999999
 46
1.25
 79
     2
 49
1.25
 49
-1.25
 53
90.0
 43
10.07644825789959
 44
-89.96589062369935
 45
-1.249999999999999
 46
1.25
 79
     2
 49
1.25
 49
-1.25
 53
90.0
 43
10.54519825789959
 44
-89.96589062369935
 45
-1.249999999999999
 46
1.25
 79
     2
 49
1.25
 49
-1.25
 98
        1
 10
-5.197605446440626
 20
-45.93630776906536
1001
GradientColor1ACI
1070
     5
1001
GradientColor2ACI
1070
     2
1001
ACAD
1010
78.05847324356273
1020
25.50956238854241
1030
0.0
  0
CIRCLE
  5
AE51B
330
1F
100
AcDbEntity
  8
HI Text
100
AcDbCircle
 10
9.456222684732072
 20
-95.29027508511092
 30
0.0
 40
1.633232321863463
  0
CIRCLE
  5
AE51C
330
1F
100
AcDbEntity
  8
HI Text
100
AcDbCircle
 10
14.54444554289657
 20
-95.75026107977993
 30
0.0
 40
0.0666400503025599
  0
LINE
  5
AE51D
330
1F
100
AcDbEntity
  8
HI Text
100
AcDbLine
 10
11.0894550065951
 20
-95.29027508511092
 30
0.0
 11
52.32858283020016
 21
-95.29027508511092
 31
0.0
  0
TEXT
  5
AE51E
330
1F
100
AcDbEntity
  8
HI Text
100
AcDbText
 10
14.51714492455592
 20
-95.79099345126037
 30
0.0
 40
0.0866448019748771
  1
R
  7
STYLE1
 72
     1
 11
14.54602652521422
 21
-95.79099345126037
 31
0.0
100
AcDbText
  0
HATCH
  5
AE51F
330
1F
100
AcDbEntity
  8
HI Text
100
AcDbHatch
 10
0.0
 20
0.0
 30
0.0
210
0.0
220
0.0
230
1.0
  2
SOLID
 70
     1
 71
     1
 91
       10
 92
        1
 93
        9
 72
     1
 10
13.21778204662081
 20
-95.88692708550276
 11
13.49821747942676
 21
-95.64003343314791
 72
     1
 10
13.49821747942676
 20
-95.64003343314791
 11
13.49821747942676
 21
-95.83302370258206
 72
     1
 10
13.49821747942676
 20
-95.83302370258206
 11
13.58191838458308
 21
-95.83302370258206
 72
     1
 10
13.58191838458308
 20
-95.83302370258206
 11
13.58191838458314
 21
-95.88692708550276
 72
     1
 10
13.58191838458314
 20
-95.88692708550276
 11
13.49821747942676
 21
-95.88692708550276
 72
     1
 10
13.49821747942676
 20
-95.88692708550276
 11
13.49821747942676
 21
-96.32418061403962
 72
     1
 10
13.49821747942676
 20
-96.32418061403962
 11
13.28963482377711
 21
-96.32418061403962
 72
     1
 10
13.28963482377711
 20
-96.32418061403962
 11
13.28963482377711
 21
-95.88692708550276
 72
     1
 10
13.28963482377711
 20
-95.88692708550276
 11
13.21778204662081
 21
-95.88692708550276
 97
        1
330
AE529
 92
        1
 93
        4
 72
     1
 10
12.9871344534109
 20
-96.32418061403962
 11
12.77855179776128
 21
-96.32418061403962
 72
     1
 10
12.77855179776128
 20
-96.32418061403962
 11
12.77855179776128
 21
-95.83302370258206
 72
     1
 10
12.77855179776128
 20
-95.83302370258206
 11
12.9871344534109
 21
-95.83302370258206
 72
     1
 10
12.9871344534109
 20
-95.83302370258206
 11
12.9871344534109
 21
-96.32418061403962
 97
        1
330
AE528
 92
        1
 93
       12
 72
     1
 10
11.96589402738178
 20
-95.97866327755413
 11
11.96589402738178
 21
-96.32418061403962
 72
     1
 10
11.96589402738178
 20
-96.32418061403962
 11
12.22045082574263
 21
-96.32418061403962
 72
     1
 10
12.22045082574263
 20
-96.32418061403962
 11
12.22045082574263
 21
-95.63381554830995
 72
     1
 10
12.22045082574263
 20
-95.63381554830995
 11
11.96589402738178
 21
-95.63381554830995
 72
     1
 10
11.96589402738178
 20
-95.63381554830995
 11
11.96589402738184
 21
-95.91471578601471
 72
     1
 10
11.96589402738184
 20
-95.91471578601471
 11
11.89782284570927
 21
-95.91471578601471
 72
     1
 10
11.89782284570927
 20
-95.91471578601471
 11
11.89782284570944
 21
-95.63381554830995
 72
     1
 10
11.89782284570944
 20
-95.63381554830995
 11
11.64326604734842
 21
-95.63381554830995
 72
     1
 10
11.64326604734842
 20
-95.63381554830995
 11
11.64326604734842
 21
-96.32418061403962
 72
     1
 10
11.64326604734842
 20
-96.32418061403962
 11
11.89782284570936
 21
-96.32418061403962
 72
     1
 10
11.89782284570936
 20
-96.32418061403962
 11
11.89782284570936
 21
-95.97866327755413
 72
     1
 10
11.89782284570936
 20
-95.97866327755413
 11
11.96589402738178
 21
-95.97866327755413
 97
        1
330
AE527
 92
        1
 93
        6
 72
     2
 10
13.78154542646731
 20
-95.96811324978396
 40
0.3557288469148716
 50
269.999999999855
 51
311.0226094260925
 73
     1
 72
     1
 10
14.01503047162058
 20
-96.23649310412695
 11
14.01503047161069
 21
-96.17141718376068
 72
     2
 10
13.78154542645696
 20
-95.94065935289659
 40
0.3282749500274737
 50
44.66341740663327
 51
94.35762720154706
 73
     0
 72
     1
 10
13.75660255672975
 20
-96.26798533118936
 11
13.75660255672912
 21
-95.83336221992288
 72
     2
 10
13.76949249612388
 20
-96.07860215831083
 40
0.2455784557287565
 50
93.00872752319534
 51
266.9912724769641
 73
     1
 72
     1
 10
13.7566025567298
 20
-96.32384209669881
 11
13.78154542646641
 21
-96.32384209669885
 97
        1
330
AE526
 92
        1
 93
        4
 72
     1
 10
14.04782524548213
 20
-96.3241806140323
 11
14.04782524548213
 21
-95.83302370257474
 72
     1
 10
14.04782524548213
 20
-95.83302370257474
 11
14.25640790113178
 21
-95.83302370257474
 72
     1
 10
14.25640790113178
 20
-95.83302370257474
 11
14.25640790113178
 21
-96.3241806140323
 72
     1
 10
14.25640790113178
 20
-96.3241806140323
 11
14.04782524548213
 21
-96.3241806140323
 97
        1
330
AE525
 92
        1
 93
        5
 72
     1
 10
13.03411300698403
 20
-95.83302370258206
 11
13.03411300698403
 21
-96.32418061403962
 72
     1
 10
13.03411300698403
 20
-96.32418061403962
 11
13.24269566263365
 21
-96.32418061403962
 72
     1
 10
13.24269566263365
 20
-96.32418061403962
 11
13.24269566263365
 21
-95.98799288567091
 72
     2
 10
13.08772647954484
 20
-95.98799288567091
 40
0.1549691830888094
 50
0.0
 51
90.0
 73
     1
 72
     1
 10
13.08772647954484
 20
-95.83302370258209
 11
13.03411300698403
 21
-95.83302370258206
 97
        1
330
AE524
 92
        1
 93
        5
 72
     1
 10
12.52299058853851
 20
-95.83302370258206
 11
12.73157324418819
 21
-95.83302370258206
 72
     1
 10
12.73157324418819
 20
-95.83302370258206
 11
12.73157324418819
 21
-96.16921143095076
 72
     2
 10
12.57660406109933
 20
-96.16921143095073
 40
0.1549691830888591
 50
0.0000000000104831
 51
90.00000000001312
 73
     0
 72
     1
 10
12.57660406109929
 20
-96.32418061403958
 11
12.52299058853851
 21
-96.32418061403962
 72
     1
 10
12.52299058853851
 20
-96.32418061403962
 11
12.52299058853851
 21
-95.83302370258206
 97
        1
330
AE523
 92
        1
 93
        5
 72
     1
 10
12.42239856240457
 20
-96.32418061403962
 11
12.47601203496535
 21
-96.32418061403962
 72
     1
 10
12.47601203496535
 20
-96.32418061403962
 11
12.47601203496535
 21
-95.83302370258206
 72
     1
 10
12.47601203496535
 20
-95.83302370258206
 11
12.26742937931576
 21
-95.83302370258206
 72
     1
 10
12.26742937931576
 20
-95.83302370258206
 11
12.26742937931576
 21
-96.16921143095076
 72
     2
 10
12.4223985624046
 20
-96.16921143095078
 40
0.1549691830888378
 50
179.9999999999895
 51
269.9999999999895
 73
     1
 97
        1
330
AE522
 92
        1
 93
        5
 72
     1
 10
14.02435566490735
 20
-96.07860215831053
 11
14.02435566491468
 21
-96.02065171220473
 72
     2
 10
13.81885134510126
 20
-96.03850752558317
 40
0.206278587190675
 50
4.965831443762698
 51
83.9913280435104
 73
     1
 72
     1
 10
13.84044437867479
 20
-95.83336221992283
 11
13.80648829620296
 21
-95.83336221990931
 72
     1
 10
13.80648829620296
 20
-95.83336221990931
 11
13.80648829620296
 21
-96.07860215831053
 72
     1
 10
13.80648829620296
 20
-96.07860215831053
 11
14.02435566490735
 21
-96.07860215831053
 97
        1
330
AE521
 92
        1
 93
        1
 72
     2
 10
14.37948155883956
 20
-95.93262777971082
 40
0.0996040771360683
 50
0.0
 51
360.0
 73
     1
 97
        1
330
AE520
 75
     1
 76
     1
 98
        1
 10
0.0
 20
-46.46966381368883
450
        0
451
        0
460
0.0
461
0.0
452
        0
462
1.0
453
        2
463
0.0
 63
     5
421
      255
463
1.0
 63
     2
421
 16776960
470
LINEAR
1001
GradientColor1ACI
1070
     5
1001
GradientColor2ACI
1070
     2
1001
ACAD
1010
11.64326604734842
1020
-49.85451680035078
1030
0.0
  0
CIRCLE
  5
AE520
102
{ACAD_REACTORS
330
AE51F
102
}
330
1F
100
AcDbEntity
  8
HI Text
100
AcDbCircle
 10
14.37948155883956
 20
-95.93262777971082
 30
0.0
 40
0.0996040771360683
  0
LWPOLYLINE
  5
AE521
102
{ACAD_REACTORS
330
AE51F
102
}
330
1F
100
AcDbEntity
  8
HI Text
100
AcDbPolyline
 90
        5
 70
     1
 43
0.0
 10
14.02435566490735
 20
-96.07860215831053
 10
14.02435566491468
 20
-96.02065171220473
 42
0.3591622824268968
 10
13.84044437867479
 20
-95.83336221992283
 10
13.80648829620296
 20
-95.83336221990931
 10
13.80648829620296
 20
-96.07860215831053
  0
LWPOLYLINE
  5
AE522
102
{ACAD_REACTORS
330
AE51F
102
}
330
1F
100
AcDbEntity
  8
HI Text
100
AcDbPolyline
 90
        5
 70
     1
 43
0.0
 10
12.42239856240457
 20
-96.32418061403962
 10
12.47601203496535
 20
-96.32418061403962
 10
12.47601203496535
 20
-95.83302370258206
 10
12.26742937931576
 20
-95.83302370258206
 10
12.26742937931576
 20
-96.16921143095076
 42
0.4142135623730951
  0
LWPOLYLINE
  5
AE523
102
{ACAD_REACTORS
330
AE51F
102
}
330
1F
100
AcDbEntity
  8
HI Text
100
AcDbPolyline
 90
        5
 70
     1
 43
0.0
 10
12.52299058853851
 20
-95.83302370258206
 10
12.73157324418819
 20
-95.83302370258206
 10
12.73157324418819
 20
-96.16921143095076
 42
-0.4142135623730951
 10
12.57660406109929
 20
-96.32418061403958
 10
12.52299058853851
 20
-96.32418061403962
  0
LWPOLYLINE
  5
AE524
102
{ACAD_REACTORS
330
AE51F
102
}
330
1F
100
AcDbEntity
  8
HI Text
100
AcDbPolyline
 90
        5
 70
     1
 43
0.0
 10
13.03411300698403
 20
-95.83302370258206
 10
13.03411300698403
 20
-96.32418061403962
 10
13.24269566263365
 20
-96.32418061403962
 10
13.24269566263365
 20
-95.98799288567091
 42
0.4142135623730948
 10
13.08772647954484
 20
-95.83302370258209
  0
LWPOLYLINE
  5
AE525
102
{ACAD_REACTORS
330
AE51F
102
}
330
1F
100
AcDbEntity
  8
HI Text
100
AcDbPolyline
 90
        4
 70
     1
 43
0.0
 10
14.04782524548213
 20
-96.3241806140323
 10
14.04782524548213
 20
-95.83302370257474
 10
14.25640790113178
 20
-95.83302370257474
 10
14.25640790113178
 20
-96.3241806140323
  0
LWPOLYLINE
  5
AE526
102
{ACAD_REACTORS
330
AE51F
102
}
330
1F
100
AcDbEntity
  8
HI Text
100
AcDbPolyline
 90
        7
 70
     0
 43
0.0
 10
13.78154542646641
 20
-96.32384209669885
 42
0.1809313373683727
 10
14.01503047162058
 20
-96.23649310412695
 10
14.01503047161069
 20
-96.17141718376068
 42
-0.2202952373044754
 10
13.75660255672975
 20
-96.26798533118936
 10
13.75660255672912
 20
-95.83336221992288
 42
0.9488198287109453
 10
13.7566025567298
 20
-96.32384209669881
 10
13.78154542646641
 20
-96.32384209669885
  0
LWPOLYLINE
  5
AE527
102
{ACAD_REACTORS
330
AE51F
102
}
330
1F
100
AcDbEntity
  8
HI Text
100
AcDbPolyline
 90
       12
 70
     1
 43
0.0
 10
11.96589402738178
 20
-95.97866327755413
 10
11.96589402738178
 20
-96.32418061403962
 10
12.22045082574263
 20
-96.32418061403962
 10
12.22045082574263
 20
-95.63381554830995
 10
11.96589402738178
 20
-95.63381554830995
 10
11.96589402738184
 20
-95.91471578601471
 10
11.89782284570927
 20
-95.91471578601471
 10
11.89782284570944
 20
-95.63381554830995
 10
11.64326604734842
 20
-95.63381554830995
 10
11.64326604734842
 20
-96.32418061403962
 10
11.89782284570936
 20
-96.32418061403962
 10
11.89782284570936
 20
-95.97866327755413
  0
LWPOLYLINE
  5
AE528
102
{ACAD_REACTORS
330
AE51F
102
}
330
1F
100
AcDbEntity
  8
HI Text
100
AcDbPolyline
 90
        4
 70
     1
 43
0.0
 10
12.9871344534109
 20
-96.32418061403962
 10
12.77855179776128
 20
-96.32418061403962
 10
12.77855179776128
 20
-95.83302370258206
 10
12.9871344534109
 20
-95.83302370258206
  0
LWPOLYLINE
  5
AE529
102
{ACAD_REACTORS
330
AE51F
102
}
330
1F
100
AcDbEntity
  8
HI Text
100
AcDbPolyline
 90
        9
 70
     1
 43
0.0
 10
13.21778204662081
 20
-95.88692708550276
 10
13.49821747942676
 20
-95.64003343314791
 10
13.49821747942676
 20
-95.83302370258206
 10
13.58191838458308
 20
-95.83302370258206
 10
13.58191838458314
 20
-95.88692708550276
 10
13.49821747942676
 20
-95.88692708550276
 10
13.49821747942676
 20
-96.32418061403962
 10
13.28963482377711
 20
-96.32418061403962
 10
13.28963482377711
 20
-95.88692708550276
  0
MTEXT
  5
AE52A
102
{ACAD_XDICTIONARY
360
AE52B
102
}
330
1F
100
AcDbEntity
  8
HI Text
100
AcDbMText
 10
55.84863828542672
 20
-94.47696151173373
 30
0.0
 40
0.9703124999999996
 41
44.32944603482724
 46
2.604708816507542
 71
     6
 72
     1
  1
{\fArial|b0|i0|c0|p34;PROFESSIONAL LANDSCAPE DRIPLINE - CONNECTION WITH PVC RISER AND TEE}
  7
Hunter
 73
     1
 44
1.0
  0
MTEXT
  5
AE52C
330
1F
100
AcDbEntity
  8
HI Text
100
AcDbMText
 10
51.9797132252861
 20
-95.87098302054519
 30
0.0
 40
0.5624999999999999
 41
0.0
 46
0.0
 71
     6
 72
     1
  1
{\fArial|b0|i0|c0|p34;NOT TO SCALE}
  7
Hunter
 73
     1
 44
1.0
  0
MTEXT
  5
AE52D
330
1F
100
AcDbEntity
  8
HI Text
100
AcDbMText
 10
10.35980817268731
 20
-95.32298260297864
 30
0.0
 40
1.455468749999999
 41
0.0
 46
0.0
 71
     6
 72
     1
  1
{\fArial|b0|i0|c0|p34;XX}
  7
Hunter
 73
     1
 44
1.0
  0
MTEXT
  5
AE52E
102
{ACAD_XDICTIONARY
360
AE52F
102
}
330
1F
100
AcDbEntity
  8
HI Text
100
AcDbMText
 10
15.35618702413487
 20
-95.63381554830995
 30
0.0
 40
0.9703124999999996
 41
33.6762967440676
 46
0.0
 71
     1
 72
     1
  1
{\fArial|b0|i0|c0|p34;HM.PLD.08}
  7
Hunter
 73
     1
 44
1.0
  0
MTEXT
  5
AE530
330
1F
100
AcDbEntity
  8
HI Text
100
AcDbMText
 10
42.53830967646567
 20
-69.74524833750558
 30
0.0
 40
0.5
 41
0.0
 46
0.0
 71
     6
 72
     1
  1
{\fArial|b0|i0|c0|p34;1}
  7
Hunter
 73
     1
 44
1.0
  0
CIRCLE
  5
AE531
330
1F
100
AcDbEntity
  8
HI Text
100
AcDbCircle
 10
42.46761374038337
 20
-71.64567734659186
 30
0.0
 40
0.511352622321557
  0
MTEXT
  5
AE532
330
1F
100
AcDbEntity
  8
HI Text
100
AcDbMText
 10
42.53830967646567
 20
-71.61532384493759
 30
0.0
 40
0.5
 41
0.0
 46
0.0
 71
     6
 72
     1
  1
{\fArial|b0|i0|c0|p34;2}
  7
Hunter
 73
     1
 44
1.0
  0
CIRCLE
  5
AE533
330
1F
100
AcDbEntity
  8
HI Text
100
AcDbCircle
 10
42.46761374038337
 20
-69.77560183915986
 30
0.0
 40
0.511352622321557
  0
LWPOLYLINE
  5
AE534
330
1F
100
AcDbEntity
  8
HI Text
100
AcDbPolyline
 90
        2
 70
     0
 43
0.0
 10
41.70212108511802
 20
-69.05560793174908
 10
52.46143494510818
 20
-69.05560793174908
  0
MTEXT
  5
AE535
330
1F
100
AcDbEntity
  8
HI Text
100
AcDbMText
 10
44.83658030119963
 20
-68.4974617307115
 30
0.0
 40
0.7499999999999999
 41
0.0
 46
0.0
 71
     6
 72
     1
  1
{\fArial|b0|i0|c0|p34;LEGEND:}
  7
Hunter
 73
     1
 44
1.0
  0
MTEXT
  5
AE536
330
1F
100
AcDbEntity
  8
HI Text
100
AcDbMText
 10
43.08842247311996
 20
-69.45924006176472
 30
0.0
 40
0.5
 41
14.36766712141882
 46
0.6558663028649381
 71
     1
 72
     1
  1
\A1;{\fArial|b0|i0|c0|p34;PROFESSIONAL LANDSCAPE DRIPLINE PER PLAN}
  7
Hunter
 73
     1
 44
1.0
  0
CIRCLE
  5
AE537
330
1F
100
AcDbEntity
  8
HI Text
100
AcDbCircle
 10
42.46761374038337
 20
-73.6331230480865
 30
0.0
 40
0.511352622321557
  0
MTEXT
  5
AE538
330
1F
100
AcDbEntity
  8
HI Text
100
AcDbMText
 10
42.53830967646567
 20
-73.60276954643222
 30
0.0
 40
0.5
 41
0.2318212824010922
 46
0.0
 71
     6
 72
     1
  1
{\fArial|b0|i0|c0|p34;3}
  7
Hunter
 73
     1
 44
1.0
  0
CIRCLE
  5
AE53C
330
1F
100
AcDbEntity
  8
HI Text
100
AcDbCircle
 10
42.46761374038337
 20
-79.49914372334865
 30
0.0
 40
0.511352622321557
  0
MTEXT
  5
AE53D
330
1F
100
AcDbEntity
  8
HI Text
100
AcDbMText
 10
42.53830967646567
 20
-79.46879022169437
 30
0.0
 40
0.5
 41
0.2318212824010929
 46
0.0
 71
     6
 72
     1
  1
{\fArial|b0|i0|c0|p34;6}
  7
Hunter
 73
     1
 44
1.0
  0
MTEXT
  5
AE53E
330
1F
100
AcDbEntity
  8
HI Text
100
AcDbMText
 10
43.08843564909444
 20
-81.50316866990023
 30
0.0
 40
0.5
 41
14.36766712141882
 46
0.0
 71
     4
 72
     1
  1
\A1;{\fArial|b0|i0|c0|p34;PVC RISER - SIZE AND LENGTH AS REQUIRED}
  7
Hunter
 73
     1
 44
1.0
  0
MTEXT
  5
AE53F
330
1F
100
AcDbEntity
  8
HI Text
100
AcDbMText
 10
43.08843564909444
 20
-71.36354448553141
 30
0.0
 40
0.5
 41
14.36766712141882
 46
0.0
 71
     1
 72
     1
  1
\A1;{\fArial|b0|i0|c0|p34;PLD OR PLD-LOC FITTING}
  7
Hunter
 73
     1
 44
1.0
  0
MTEXT
  5
AE540
330
1F
100
AcDbEntity
  8
HI Text
100
AcDbMText
 10
43.08843564909444
 20
-73.35464757944177
 30
0.0
 40
0.5
 41
14.36766712141882
 46
0.0
 71
     1
 72
     1
  1
\A1;{\fArial|b0|i0|c0|p34;FINISHED GRADE}
  7
Hunter
 73
     1
 44
1.0
  0
CIRCLE
  5
AE541
330
1F
100
AcDbEntity
  8
HI Text
100
AcDbCircle
 10
42.46761374038337
 20
-75.59295627581879
 30
0.0
 40
0.511352622321557
  0
MTEXT
  5
AE542
330
1F
100
AcDbEntity
  8
HI Text
100
AcDbMText
 10
42.53830967646567
 20
-75.56260277416452
 30
0.0
 40
0.5
 41
0.231821282401096
 46
0.0
 71
     6
 72
     1
  1
{\fArial|b0|i0|c0|p34;4}
  7
Hunter
 73
     1
 44
1.0
  0
MTEXT
  5
AE543
330
1F
100
AcDbEntity
  8
HI Text
100
AcDbMText
 10
43.08843564909444
 20
-75.2851396208781
 30
0.0
 40
0.5
 41
14.36766712141882
 46
0.0
 71
     1
 72
     1
  1
\A1;{\fArial|b0|i0|c0|p34;MULCH (AS SPECIFIED)}
  7
Hunter
 73
     1
 44
1.0
  0
CIRCLE
  5
AE544
330
1F
100
AcDbEntity
  8
HI Text
100
AcDbCircle
 10
42.46761374038337
 20
-81.52254239298247
 30
0.0
 40
0.511352622321557
  0
MTEXT
  5
AE545
330
1F
100
AcDbEntity
  8
HI Text
100
AcDbMText
 10
42.53830967646567
 20
-81.4921888913282
 30
0.0
 40
0.5
 41
0.2318212824010922
 46
0.0
 71
     6
 72
     1
  1
{\fArial|b0|i0|c0|p34;7}
  7
Hunter
 73
     1
 44
1.0
  0
MTEXT
  5
AE546
330
1F
100
AcDbEntity
  8
HI Text
100
AcDbMText
 10
43.08843564909444
 20
-79.21435783603732
 30
0.0
 40
0.5
 41
14.36766712141882
 46
0.0
 71
     1
 72
     1
  1
\A1;{\fArial|b0|i0|c0|p34;SOIL}
  7
Hunter
 73
     1
 44
1.0
  0
LINE
  5
AE547
330
1F
100
AcDbEntity
  8
HI Detail 3
100
AcDbLine
 10
26.01918571338789
 20
-86.26479257714043
 30
0.0
 11
23.94382399295766
 21
-86.26479257714043
 31
0.0
  0
LINE
  5
AE548
330
1F
100
AcDbEntity
  8
HI Detail 3
100
AcDbLine
 10
26.04734571338796
 20
-86.29295257714039
 30
0.0
 11
26.04734571338796
 21
-87.52008221920121
 31
0.0
  0
LINE
  5
AE549
330
1F
100
AcDbEntity
  8
HI Detail 3
100
AcDbLine
 10
23.91566399295758
 20
-87.59568147150233
 30
0.0
 11
23.91566399295758
 21
-86.29295257714039
 31
0.0
  0
ARC
  5
AE54A
330
1F
100
AcDbEntity
  8
HI Detail 3
100
AcDbCircle
 10
23.94382399295766
 20
-86.29295257714039
 30
0.0
 40
0.02816
100
AcDbArc
 50
90.0
 51
180.0
  0
ARC
  5
AE54B
330
1F
100
AcDbEntity
  8
HI Detail 3
100
AcDbCircle
 10
26.01918571338789
 20
-86.29295257714039
 30
0.0
 40
0.02816
100
AcDbArc
 50
0.0
 51
90.0
  0
LINE
  5
AE54C
330
1F
100
AcDbEntity
  8
HI Detail 3
100
AcDbLine
 10
24.15119670865608
 20
-81.51847416570811
 30
0.0
 11
24.15119670865608
 21
-82.47753118056108
 31
0.0
  0
LINE
  5
AE54D
330
1F
100
AcDbEntity
  8
HI Detail 3
100
AcDbLine
 10
24.15119670865608
 20
-83.08050827096712
 30
0.0
 11
24.15119670865608
 21
-86.26479257714043
 31
0.0
  0
LINE
  5
AE54E
330
1F
100
AcDbEntity
  8
HI Detail 3
100
AcDbLine
 10
25.81181299768947
 20
-81.51847416570811
 30
0.0
 11
25.81181299768947
 21
-82.16585861875834
 31
0.0
  0
LINE
  5
AE54F
330
1F
100
AcDbEntity
  8
HI Detail 3
100
AcDbLine
 10
25.81181299768947
 20
-82.76883570916441
 30
0.0
 11
25.81181299768946
 21
-86.26479257714043
 31
0.0
  0
LINE
  5
AE550
330
1F
100
AcDbEntity
  8
HI Deatil 2
100
AcDbLine
 10
21.3229672228674
 20
-78.78347051906516
 30
0.0
 11
20.89867665590399
 21
-78.78347051906516
 31
0.0
  0
LINE
  5
AE551
330
1F
100
AcDbEntity
  8
HI Deatil 2
100
AcDbLine
 10
20.89867665590399
 20
-78.78347051906516
 30
0.0
 11
20.89867665590399
 21
-78.62162881546414
 31
0.0
  0
LINE
  5
AE552
330
1F
100
AcDbEntity
  8
HI Deatil 2
100
AcDbLine
 10
20.89867665590399
 20
-78.62162881546414
 30
0.0
 11
20.89867665590399
 21
-78.61831217692529
 31
0.0
  0
ARC
  5
AE553
330
1F
100
AcDbEntity
  8
HI Deatil 2
100
AcDbCircle
 10
20.88867665590399
 20
-78.61831217692529
 30
0.0
 40
0.0100000000000051
100
AcDbArc
 50
0.0
 51
126.5327755904134
  0
LINE
  5
AE554
330
1F
100
AcDbEntity
  8
HI Deatil 2
100
AcDbLine
 10
20.88272383061135
 20
-78.61027701227013
 30
0.0
 11
20.86740108833138
 21
-78.62162881546414
 31
0.0
  0
LINE
  5
AE555
330
1F
100
AcDbEntity
  8
HI Deatil 2
100
AcDbLine
 10
20.86740108833138
 20
-78.62162881546414
 30
0.0
 11
20.64894604008497
 21
-78.78347051906516
 31
0.0
  0
LINE
  5
AE556
330
1F
100
AcDbEntity
  8
HI Deatil 2
100
AcDbLine
 10
20.64894604008497
 20
-78.78347051906516
 30
0.0
 11
18.41493881190995
 21
-78.78347051906516
 31
0.0
  0
LINE
  5
AE557
330
1F
100
AcDbEntity
  8
HI Deatil 2
100
AcDbLine
 10
16.44523211556149
 20
-78.78347051906516
 30
0.0
 11
14.64905370434025
 21
-78.78347051906516
 31
0.0
  0
LINE
  5
AE558
330
1F
100
AcDbEntity
  8
HI Deatil 2
100
AcDbLine
 10
21.32296722286739
 20
-79.98661858005201
 30
0.0
 11
20.89867665590399
 21
-79.98661858005201
 31
0.0
  0
LINE
  5
AE559
330
1F
100
AcDbEntity
  8
HI Deatil 2
100
AcDbLine
 10
20.89867665590399
 20
-79.98661858005201
 30
0.0
 11
20.89867665590399
 21
-80.15177692219188
 31
0.0
  0
ARC
  5
AE55A
330
1F
100
AcDbEntity
  8
HI Deatil 2
100
AcDbCircle
 10
20.88867665590399
 20
-80.15177692219188
 30
0.0
 40
0.0100000000000051
100
AcDbArc
 50
233.4672244095866
 51
0.0
  0
LINE
  5
AE55B
330
1F
100
AcDbEntity
  8
HI Deatil 2
100
AcDbLine
 10
20.88272383061135
 20
-80.15981208684705
 30
0.0
 11
20.64894604008497
 21
-79.98661858005201
 31
0.0
  0
LINE
  5
AE55C
330
1F
100
AcDbEntity
  8
HI Deatil 2
100
AcDbLine
 10
20.64894604008497
 20
-79.98661858005201
 30
0.0
 11
18.41493881190999
 21
-79.98661858005201
 31
0.0
  0
LINE
  5
AE55D
330
1F
100
AcDbEntity
  8
HI Deatil 2
100
AcDbLine
 10
16.44523211556152
 20
-79.98661858005201
 30
0.0
 11
13.61061611808371
 21
-79.98661858005201
 31
0.0
  0
CIRCLE
  5
AE55E
330
1F
100
AcDbEntity
  8
HI Detail 3
100
AcDbCircle
 10
25.02374485317501
 20
-88.74892849111892
 30
0.0
 40
1.599319192980174
  0
CIRCLE
  5
AE55F
330
1F
100
AcDbEntity
  8
HI Detail 3
100
AcDbCircle
 10
25.02374485317501
 20
-88.74892849111892
 30
0.0
 40
1.326917713364312
  0
LINE
  5
AE601
330
1F
100
AcDbEntity
  8
HI Deatil 2
100
AcDbLine
 10
35.31395600200529
 20
-74.54421384394573
 30
0.0
 11
14.64905370434026
 21
-74.54421384394573
 31
0.0
  0
CIRCLE
  5
AE602
330
1F
100
AcDbEntity
  8
HI Text
100
AcDbCircle
 10
42.46761374038337
 20
-83.68838365779067
 30
0.0
 40
0.511352622321557
  0
MTEXT
  5
AE603
330
1F
100
AcDbEntity
  8
HI Text
100
AcDbMText
 10
42.46761374038337
 20
-83.68838365779067
 30
0.0
 40
0.5
 41
0.5059889325313582
 46
0.0
 71
     5
 72
     1
  1
{\fArial|b0|i0|c0|p34;8}
  7
Hunter
 73
     1
 44
1.0
  0
MTEXT
  5
AE604
330
1F
100
AcDbEntity
  8
HI Text
100
AcDbMText
 10
43.08843564909444
 20
-83.40990818914594
 30
0.0
 40
0.5
 41
14.36766712141882
 46
0.0
 71
     1
 72
     1
  1
\A1;{\fArial|b0|i0|c0|p34;PVC SUPPLY HEADER - SIZE PER PLAN}
  7
Hunter
 73
     1
 44
1.0
  0
LWPOLYLINE
  5
AE605
330
1F
100
AcDbEntity
  8
HI Deatil 1
100
AcDbPolyline
 90
        2
 70
     0
 43
0.0
 10
14.64905370434026
 20
-73.27224605705976
 10
14.64905370434025
 20
-78.62162881546414
  0
LWPOLYLINE
  5
AE606
330
1F
100
AcDbEntity
  8
HI Deatil 1
100
AcDbPolyline
 90
        2
 70
     0
 43
0.0
 10
14.64905370434025
 20
-78.62162881546414
 10
14.64905370434025
 20
-78.93583055499036
  0
LWPOLYLINE
  5
AE607
330
1F
100
AcDbEntity
  8
HI Deatil 1
100
AcDbPolyline
 90
        2
 70
     0
 43
0.0
 10
13.50369470925088
 20
-79.89690086533542
 10
14.64905370434025
 20
-78.93583055499036
  0
LWPOLYLINE
  5
AE608
330
1F
100
AcDbEntity
  8
HI Deatil 1
100
AcDbPolyline
 90
        2
 70
     0
 43
0.0
 10
13.50369470925088
 20
-79.89690086533542
 10
13.92727588431506
 20
-80.25232767310543
  0
LWPOLYLINE
  5
AE609
330
1F
100
AcDbEntity
  8
HI Deatil 1
100
AcDbPolyline
 90
        2
 70
     0
 43
0.0
 10
13.92727588431506
 20
-80.25232767310543
 10
14.64905370434024
 20
-80.85797117568048
  0
LWPOLYLINE
  5
AE60A
330
1F
100
AcDbEntity
  8
HI Deatil 1
100
AcDbPolyline
 90
        2
 70
     0
 43
0.0
 10
15.79441269942961
 20
-81.81904148602555
 10
14.64905370434023
 20
-82.78011179637063
  0
LWPOLYLINE
  5
AE60B
330
1F
100
AcDbEntity
  8
HI Deatil 1
100
AcDbPolyline
 90
        2
 70
     0
 43
0.0
 10
15.79441269942961
 20
-81.81904148602555
 10
14.64905370434024
 20
-80.85797117568048
  0
LWPOLYLINE
  5
AE60C
330
1F
100
AcDbEntity
  8
HI Deatil 1
100
AcDbPolyline
 90
        2
 70
     0
 43
0.0
 10
34.16859700691591
 20
-79.89690086533542
 10
35.31395600200528
 20
-78.93583055499036
  0
LWPOLYLINE
  5
AE60D
330
1F
100
AcDbEntity
  8
HI Deatil 1
100
AcDbPolyline
 90
        2
 70
     0
 43
0.0
 10
34.16859700691591
 20
-79.89690086533542
 10
35.31395600200527
 20
-80.85797117568048
  0
LWPOLYLINE
  5
AE60E
330
1F
100
AcDbEntity
  8
HI Deatil 1
100
AcDbPolyline
 90
        2
 70
     0
 43
0.0
 10
36.45931499709463
 20
-81.81904148602555
 10
35.31395600200526
 20
-82.78011179637063
  0
LWPOLYLINE
  5
AE60F
330
1F
100
AcDbEntity
  8
HI Deatil 1
100
AcDbPolyline
 90
        2
 70
     0
 43
0.0
 10
36.45931499709463
 20
-81.81904148602555
 10
35.31395600200527
 20
-80.85797117568048
  0
LWPOLYLINE
  5
AE610
330
1F
100
AcDbEntity
  8
HI Dimensions
100
AcDbPolyline
 90
        2
 70
     0
 43
0.075
 10
10.59519030787525
 20
-74.29421384394572
 10
11.09519030787525
 20
-74.79421384394573
  0
LINE
  5
AE611
330
1F
100
AcDbEntity
  8
HI Dimensions
100
AcDbLine
 10
10.84519030787525
 20
-74.13586761523593
 30
0.0
 11
10.84519030787525
 21
-76.5682079939916
 31
0.0
  0
MTEXT
  5
AE612
102
{ACAD_XDICTIONARY
360
AE613
102
}
330
1F
100
AcDbEntity
  8
HI Text
100
AcDbMText
 10
10.84519030787525
 20
-77.02712391532078
 30
0.0
 40
0.5
 41
9.609171224198007
 46
0.0
 71
     5
 72
     5
  1
DEPTH PER PLAN
  7
DIMS
 73
     1
 44
1.0
1001
ACAD
1000
ACAD_MTEXT_COLUMN_INFO_BEGIN
1070
    75
1070
     2
1070
    79
1070
     0
1070
    76
1070
     1
1070
    78
1070
     0
1070
    48
1040
9.609171224198007
1070
    49
1040
60.5201024220279
1070
    50
1070
     1
1040
0.0
1000
ACAD_MTEXT_COLUMN_INFO_END
  0
LINE
  5
AE614
330
1F
100
AcDbEntity
  8
HI Dimensions
100
AcDbLine
 10
10.28185883579855
 20
-74.54421384394573
 30
0.0
 11
14.43114050019691
 21
-74.54421384394573
 31
0.0
  0
LWPOLYLINE
  5
AE615
330
1F
100
AcDbEntity
  8
HI Dimensions
100
AcDbPolyline
 90
        2
 70
     0
 43
0.075
 10
10.59519030787525
 20
-79.73976677367542
 10
11.09519030787525
 20
-80.2397667736754
  0
LINE
  5
AE616
330
1F
100
AcDbEntity
  8
HI Dimensions
100
AcDbLine
 10
10.84519030787525
 20
-80.44890030439752
 30
0.0
 11
10.84519030787525
 21
-77.63147456402745
 31
0.0
  0
LINE
  5
AE617
330
1F
100
AcDbEntity
  8
HI Dimensions
100
AcDbLine
 10
10.28185883579855
 20
-79.98976677367541
 30
0.0
 11
13.3166496060679
 21
-79.98976677367541
 31
0.0
  0
LWPOLYLINE
  5
AE618
330
1F
100
AcDbEntity
  8
HI Detail 3
100
AcDbPolyline
 90
        2
 70
     0
 43
0.0
 10
27.07305260942589
 20
-82.35307149985677
 10
25.96890325717079
 20
-82.35307149985677
  0
LWPOLYLINE
  5
AE619
330
1F
100
AcDbEntity
  8
HI Detail 3
100
AcDbPolyline
 90
        2
 70
     0
 43
0.0
 10
24.04676263648066
 20
-82.35307149985677
 10
22.86797608532488
 20
-82.35307149985677
  0
LWPOLYLINE
  5
AE61A
330
1F
100
AcDbEntity
  8
HI Detail 3
100
AcDbPolyline
 90
        2
 70
     0
 43
0.0
 10
25.48836810199825
 20
-81.78039200231209
 10
25.96890325717079
 20
-82.35307149985677
  0
LWPOLYLINE
  5
AE61B
330
1F
100
AcDbEntity
  8
HI Detail 3
100
AcDbPolyline
 90
        2
 70
     0
 43
0.0
 10
25.48836810199825
 20
-81.78039200231209
 10
25.00783294682572
 20
-82.35307149985677
  0
LWPOLYLINE
  5
AE61C
330
1F
100
AcDbEntity
  8
HI Detail 3
100
AcDbPolyline
 90
        2
 70
     0
 43
0.0
 10
24.52729779165319
 20
-82.92575099740146
 10
24.04676263648065
 20
-82.35307149985676
  0
LWPOLYLINE
  5
AE61D
330
1F
100
AcDbEntity
  8
HI Detail 3
100
AcDbPolyline
 90
        2
 70
     0
 43
0.0
 10
24.52729779165319
 20
-82.92575099740146
 10
25.00783294682572
 20
-82.35307149985677
  0
LWPOLYLINE
  5
AE61E
330
1F
100
AcDbEntity
  8
HI Detail 3
100
AcDbPolyline
 90
        2
 70
     0
 43
0.0
 10
27.07305260942589
 20
-82.95604859026283
 10
25.96890325717079
 20
-82.95604859026282
  0
LWPOLYLINE
  5
AE61F
330
1F
100
AcDbEntity
  8
HI Detail 3
100
AcDbPolyline
 90
        2
 70
     0
 43
0.0
 10
24.04676263648066
 20
-82.95604859026282
 10
22.86797608532488
 20
-82.95604859026282
  0
LWPOLYLINE
  5
AE620
330
1F
100
AcDbEntity
  8
HI Detail 3
100
AcDbPolyline
 90
        2
 70
     0
 43
0.0
 10
25.48836810199825
 20
-82.38336909271813
 10
25.96890325717079
 20
-82.95604859026283
  0
LWPOLYLINE
  5
AE621
330
1F
100
AcDbEntity
  8
HI Detail 3
100
AcDbPolyline
 90
        2
 70
     0
 43
0.0
 10
25.48836810199825
 20
-82.38336909271813
 10
25.00783294682572
 20
-82.95604859026282
  0
LWPOLYLINE
  5
AE622
330
1F
100
AcDbEntity
  8
HI Detail 3
100
AcDbPolyline
 90
        2
 70
     0
 43
0.0
 10
24.52729779165319
 20
-83.5287280878075
 10
24.04676263648065
 20
-82.95604859026282
  0
LWPOLYLINE
  5
AE623
330
1F
100
AcDbEntity
  8
HI Detail 3
100
AcDbPolyline
 90
        2
 70
     0
 43
0.0
 10
24.52729779165319
 20
-83.5287280878075
 10
25.00783294682572
 20
-82.95604859026282
  0
LWPOLYLINE
  5
AE624
330
1F
100
AcDbEntity
  8
HI Deatil 1
100
AcDbPolyline
 90
        2
 70
     0
 43
0.0
 10
14.64905370434023
 20
-82.78011179637063
 10
14.64905370434022
 20
-88.44369629430124
  0
LWPOLYLINE
  5
AE625
330
1F
100
AcDbEntity
  8
HI Deatil 1
100
AcDbPolyline
 90
        2
 70
     0
 43
0.0
 10
35.31395600200529
 20
-73.27224605705976
 10
35.31395600200528
 20
-78.93583055499036
  0
LWPOLYLINE
  5
AE626
330
1F
100
AcDbEntity
  8
HI Deatil 1
100
AcDbPolyline
 90
        2
 70
     0
 43
0.0
 10
35.31395600200526
 20
-82.78011179637063
 10
35.31395600200525
 20
-88.44369629430124
  0
LINE
  5
AE629
330
1F
100
AcDbEntity
  8
HI Detail 3
100
AcDbLine
 10
22.87200919260884
 20
-78.37369178299642
 30
0.0
 11
22.87200919260884
 21
-80.44905350342665
 31
0.0
  0
LINE
  5
AE62A
330
1F
100
AcDbEntity
  8
HI Detail 3
100
AcDbLine
 10
22.90016919260879
 20
-78.34553178299635
 30
0.0
 11
27.06284051373675
 21
-78.34553178299642
 31
0.0
  0
LINE
  5
AE62B
330
1F
100
AcDbEntity
  8
HI Detail 3
100
AcDbLine
 10
23.91566399295758
 20
-80.47721350342673
 30
0.0
 11
22.90016919260879
 21
-80.47721350342673
 31
0.0
  0
ARC
  5
AE62C
330
1F
100
AcDbEntity
  8
HI Detail 3
100
AcDbCircle
 10
22.90016919260879
 20
-80.44905350342665
 30
0.0
 40
0.02816
100
AcDbArc
 50
180.0
 51
270.0
  0
ARC
  5
AE62D
330
1F
100
AcDbEntity
  8
HI Detail 3
100
AcDbCircle
 10
22.90016919260879
 20
-78.37369178299642
 30
0.0
 40
0.02816
100
AcDbArc
 50
90.0
 51
180.0
  0
LINE
  5
AE62E
330
1F
100
AcDbEntity
  8
HI Detail 3
100
AcDbLine
 10
22.39480496971837
 20
-80.3890546734369
 30
0.0
 11
22.39480496971837
 21
-78.43369061298616
 31
0.0
  0
LINE
  5
AE62F
330
1F
100
AcDbEntity
  8
HI Detail 3
100
AcDbLine
 10
22.58829872624879
 20
-78.43369061298616
 30
0.0
 11
22.39480496971837
 21
-78.43369061298616
 31
0.0
  0
LINE
  5
AE630
330
1F
100
AcDbEntity
  8
HI Detail 3
100
AcDbLine
 10
22.58829872624879
 20
-80.3890546734369
 30
0.0
 11
22.58829872624879
 21
-78.43369061298616
 31
0.0
  0
LINE
  5
AE631
330
1F
100
AcDbEntity
  8
HI Detail 3
100
AcDbLine
 10
22.58829872624879
 20
-80.24168078772822
 30
0.0
 11
22.87200919260884
 21
-80.24168078772822
 31
0.0
  0
LINE
  5
AE632
330
1F
100
AcDbEntity
  8
HI Detail 3
100
AcDbLine
 10
22.7889010568276
 20
-78.58106449869485
 30
0.0
 11
22.7889010568276
 21
-80.24168078772822
 31
0.0
  0
LINE
  5
AE633
330
1F
100
AcDbEntity
  8
HI Detail 3
100
AcDbLine
 10
22.68119803125402
 20
-78.58106449869485
 30
0.0
 11
22.6811980312586
 21
-80.24168078772822
 31
0.0
  0
LINE
  5
AE634
330
1F
100
AcDbEntity
  8
HI Detail 3
100
AcDbLine
 10
22.58829872624879
 20
-80.3890546734369
 30
0.0
 11
22.39480496971837
 21
-80.3890546734369
 31
0.0
  0
LINE
  5
AE635
330
1F
100
AcDbEntity
  8
HI Detail 3
100
AcDbLine
 10
22.0968799282905
 20
-80.3890546734369
 30
0.0
 11
22.0968799282905
 21
-80.26061852621817
 31
0.0
  0
LINE
  5
AE636
330
1F
100
AcDbEntity
  8
HI Detail 3
100
AcDbLine
 10
22.09690187335584
 20
-80.26061852621817
 30
0.0
 11
22.09687992829047
 21
-79.90392004336486
 31
0.0
  0
LINE
  5
AE637
330
1F
100
AcDbEntity
  8
HI Detail 3
100
AcDbLine
 10
22.09689758869225
 20
-79.90392004315274
 30
0.0
 11
22.09688512619235
 21
-78.86641623163931
 31
0.0
  0
LINE
  5
AE638
330
1F
100
AcDbEntity
  8
HI Detail 3
100
AcDbLine
 10
22.0968799282905
 20
-78.86641624537874
 30
0.0
 11
22.0968799282905
 21
-78.62162881546414
 31
0.0
  0
LINE
  5
AE639
330
1F
100
AcDbEntity
  8
HI Detail 3
100
AcDbLine
 10
22.0968799282905
 20
-78.62162881546414
 30
0.0
 11
22.0968799282905
 21
-78.43369061298616
 31
0.0
  0
LINE
  5
AE63A
330
1F
100
AcDbEntity
  8
HI Detail 3
100
AcDbLine
 10
22.29037368482091
 20
-78.43369061298616
 30
0.0
 11
22.0968799282905
 21
-78.43369061298616
 31
0.0
  0
LINE
  5
AE63B
330
1F
100
AcDbEntity
  8
HI Detail 3
100
AcDbLine
 10
22.29037368482091
 20
-80.3890546734369
 30
0.0
 11
22.29037368482091
 21
-78.43369061298616
 31
0.0
  0
LINE
  5
AE63C
330
1F
100
AcDbEntity
  8
HI Detail 3
100
AcDbLine
 10
22.29037368482091
 20
-80.3890546734369
 30
0.0
 11
22.0968799282905
 21
-80.3890546734369
 31
0.0
  0
LINE
  5
AE63D
330
1F
100
AcDbEntity
  8
HI Detail 3
100
AcDbLine
 10
22.29037368482091
 20
-79.33470154926164
 30
0.0
 11
22.39480496971837
 21
-79.33470154926164
 31
0.0
  0
LINE
  5
AE63E
330
1F
100
AcDbEntity
  8
HI Detail 3
100
AcDbLine
 10
22.29037368482091
 20
-79.48804373716143
 30
0.0
 11
22.39480496971837
 21
-79.48804373716143
 31
0.0
  0
LINE
  5
AE63F
330
1F
100
AcDbEntity
  8
HI Detail 3
100
AcDbLine
 10
22.29037368482091
 20
-78.51315909581109
 30
0.0
 11
22.39480496971837
 21
-78.51315909581109
 31
0.0
  0
LINE
  5
AE640
330
1F
100
AcDbEntity
  8
HI Detail 3
100
AcDbLine
 10
22.29037368482091
 20
-80.30958619061198
 30
0.0
 11
22.39480496971837
 21
-80.30958619061198
 31
0.0
  0
LINE
  5
AE641
330
1F
100
AcDbEntity
  8
HI Detail 3
100
AcDbLine
 10
22.58829872624879
 20
-78.58106449869485
 30
0.0
 11
22.87200919260884
 21
-78.58106449869485
 31
0.0
  0
LINE
  5
AE642
330
1F
100
AcDbEntity
  8
HI Detail 3
100
AcDbLine
 10
20.27488668573555
 20
-78.86641624537874
 30
0.0
 11
20.27488668573557
 21
-79.90392004336488
 31
0.0
  0
LINE
  5
AE643
330
1F
100
AcDbEntity
  8
HI Detail 3
100
AcDbLine
 10
20.84513537062314
 20
-78.73003953144028
 30
0.0
 11
20.84513537062314
 21
-80.04029675730356
 31
0.0
  0
LINE
  5
AE644
330
1F
100
AcDbEntity
  8
HI Detail 3
100
AcDbLine
 10
20.84513537062314
 20
-80.04029675730356
 30
0.0
 11
20.6610531411345
 21
-79.90392004336486
 31
0.0
  0
LINE
  5
AE645
330
1F
100
AcDbEntity
  8
HI Detail 3
100
AcDbLine
 10
20.6610531411345
 20
-79.90392004336486
 30
0.0
 11
20.6610531411345
 21
-78.86641624537874
 31
0.0
  0
LINE
  5
AE646
330
1F
100
AcDbEntity
  8
HI Detail 3
100
AcDbLine
 10
20.84513537062314
 20
-78.73003953144027
 30
0.0
 11
20.6610531411345
 21
-78.86641624537874
 31
0.0
  0
LINE
  5
AE647
330
1F
100
AcDbEntity
  8
HI Detail 3
100
AcDbLine
 10
20.6610531411345
 20
-79.90392004336486
 30
0.0
 11
20.27488668573555
 21
-79.90392004336488
 31
0.0
  0
LINE
  5
AE648
330
1F
100
AcDbEntity
  8
HI Detail 3
100
AcDbLine
 10
20.6610531411345
 20
-78.86641624537874
 30
0.0
 11
20.27488668573555
 21
-78.86641624537874
 31
0.0
  0
LINE
  5
AE649
330
1F
100
AcDbEntity
  8
HI Detail 3
100
AcDbLine
 10
21.3229672228674
 20
-79.90392004336486
 30
0.0
 11
20.84513537062314
 21
-79.90392004336488
 31
0.0
  0
LINE
  5
AE64A
330
1F
100
AcDbEntity
  8
HI Detail 3
100
AcDbLine
 10
21.3229672228674
 20
-78.86641624537874
 30
0.0
 11
20.84513537062314
 21
-78.86641624537874
 31
0.0
  0
LINE
  5
AE64B
330
1F
100
AcDbEntity
  8
HI Detail 3
100
AcDbLine
 10
21.3229672228674
 20
-80.00114508842184
 30
0.0
 11
21.43420804702655
 21
-80.00114508842184
 31
0.0
  0
LINE
  5
AE64C
330
1F
100
AcDbEntity
  8
HI Detail 3
100
AcDbLine
 10
21.3229672228674
 20
-80.00114508842184
 30
0.0
 11
21.3229672228674
 21
-79.98661858005201
 31
0.0
  0
LINE
  5
AE64D
330
1F
100
AcDbEntity
  8
HI Detail 3
100
AcDbLine
 10
21.3229672228674
 20
-79.98661858005201
 30
0.0
 11
21.3229672228674
 21
-78.78347051906516
 31
0.0
  0
LINE
  5
AE64E
330
1F
100
AcDbEntity
  8
HI Detail 3
100
AcDbLine
 10
21.3229672228674
 20
-78.78347051906516
 30
0.0
 11
21.3229672228674
 21
-78.76919120032198
 31
0.0
  0
LINE
  5
AE64F
330
1F
100
AcDbEntity
  8
HI Detail 3
100
AcDbLine
 10
21.43420804702655
 20
-80.00114508842184
 30
0.0
 11
21.43420804702655
 21
-79.90392004336486
 31
0.0
  0
LINE
  5
AE650
330
1F
100
AcDbEntity
  8
HI Detail 3
100
AcDbLine
 10
21.43420804702655
 20
-79.90392004336486
 30
0.0
 11
21.43420804702655
 21
-78.86641624537874
 31
0.0
  0
LINE
  5
AE651
330
1F
100
AcDbEntity
  8
HI Detail 3
100
AcDbLine
 10
21.43420804702655
 20
-78.86641624537874
 30
0.0
 11
21.43420804702655
 21
-78.76919120032198
 31
0.0
  0
LINE
  5
AE652
330
1F
100
AcDbEntity
  8
HI Detail 3
100
AcDbLine
 10
21.3229672228674
 20
-78.76919120032198
 30
0.0
 11
21.43420804702655
 21
-78.76919120032198
 31
0.0
  0
LINE
  5
AE653
330
1F
100
AcDbEntity
  8
HI Detail 3
100
AcDbLine
 10
22.09687992829047
 20
-79.90392004336486
 30
0.0
 11
21.43420804702655
 21
-79.90392004336486
 31
0.0
  0
LINE
  5
AE654
330
1F
100
AcDbEntity
  8
HI Detail 3
100
AcDbLine
 10
22.0968799282905
 20
-78.86641624537874
 30
0.0
 11
21.43420804702655
 21
-78.86641624537874
 31
0.0
  0
LINE
  5
AE655
330
1F
100
AcDbEntity
  8
HI Detail 3
100
AcDbLine
 10
23.94382399295766
 20
-81.51847416570811
 30
0.0
 11
26.01918571338789
 21
-81.51847416570811
 31
0.0
  0
LINE
  5
AE656
330
1F
100
AcDbEntity
  8
HI Detail 3
100
AcDbLine
 10
23.91566399295758
 20
-81.49031416570815
 30
0.0
 11
23.91566399295758
 21
-80.47721350342673
 31
0.0
  0
LINE
  5
AE658
330
1F
100
AcDbEntity
  8
HI Detail 3
100
AcDbLine
 10
26.04734571338796
 20
-80.47721350342673
 30
0.0
 11
26.04734571338796
 21
-81.49031416570815
 31
0.0
  0
ARC
  5
AE659
330
1F
100
AcDbEntity
  8
HI Detail 3
100
AcDbCircle
 10
26.01918571338789
 20
-81.49031416570815
 30
0.0
 40
0.02816
100
AcDbArc
 50
270.0
 51
0.0
  0
ARC
  5
AE65A
330
1F
100
AcDbEntity
  8
HI Detail 3
100
AcDbCircle
 10
23.94382399295766
 20
-81.49031416570815
 30
0.0
 40
0.02816
100
AcDbArc
 50
180.0
 51
270.0
  0
CIRCLE
  5
AE65D
330
1F
100
AcDbEntity
  8
HI Text
100
AcDbCircle
 10
42.46761374038337
 20
-77.45693977006059
 30
0.0
 40
0.511352622321557
  0
MTEXT
  5
AE65E
330
1F
100
AcDbEntity
  8
HI Text
100
AcDbMText
 10
42.53830967646567
 20
-77.42658626840631
 30
0.0
 40
0.5
 41
0.2318212824010938
 46
0.0
 71
     6
 72
     1
  1
{\fArial|b0|i0|c0|p34;5}
  7
Hunter
 73
     1
 44
1.0
  0
MTEXT
  5
AE65F
330
1F
100
AcDbEntity
  8
HI Text
100
AcDbMText
 10
43.08843564909444
 20
-77.42529706448059
 30
0.0
 40
0.5
 41
14.36766712141882
 46
0.0
 71
     4
 72
     1
  1
\A1;{\fArial|b0|i0|c0|p34;PVC TEE}
  7
Hunter
 73
     1
 44
1.0
  0
MTEXT
  5
AE660
330
1F
100
AcDbEntity
  8
HI Text
100
AcDbMText
 10
38.74417391197975
 20
-68.74355411875334
 30
0.0
 40
0.5
 41
0.0
 46
0.0
 71
     6
 72
     1
  1
{\fArial|b0|i0|c0|p34;1}
  7
Hunter
 73
     1
 44
1.0
  0
LEADER
  5
AE661
330
1F
100
AcDbEntity
  8
HI Text
100
AcDbLeader
  3
LandMatters
 76
     3
 10
19.53194242599746
 20
-78.78347051906516
 30
0.0
 10
37.55440755314513
 20
-68.77390762040758
 30
0.0
 10
38.14984294187665
 20
-68.77390762040763
 30
0.0
211
-0.0000000000000002
221
-1.0
231
0.0
1001
ACAD
1000
DSTYLE
1002
{
1070
    41
1040
0.5
1002
}
  0
CIRCLE
  5
AE662
330
1F
100
AcDbEntity
  8
HI Text
100
AcDbCircle
 10
38.66119556419821
 20
-68.77390762040761
 30
0.0
 40
0.511352622321557
  0
MTEXT
  5
AE663
330
1F
100
AcDbEntity
  8
HI Text
100
AcDbMText
 10
38.75946425302121
 20
-69.76914475801507
 30
0.0
 40
0.5
 41
0.0
 46
0.0
 71
     6
 72
     1
  1
{\fArial|b0|i0|c0|p34;2}
  7
Hunter
 73
     1
 44
1.0
  0
LEADER
  5
AE664
330
1F
100
AcDbEntity
  8
HI Text
100
AcDbLeader
  3
LandMatters
 76
     3
 10
22.58829872624879
 20
-78.43369061298616
 30
0.0
 10
37.5432133808104
 20
-69.79949825966932
 30
0.0
 10
38.16513328291812
 20
-69.79949825966937
 30
0.0
211
-0.0000000000000002
221
-1.0
231
0.0
1001
ACAD
1000
DSTYLE
1002
{
1070
    41
1040
0.5
1002
}
  0
CIRCLE
  5
AE665
330
1F
100
AcDbEntity
  8
HI Text
100
AcDbCircle
 10
38.67648590523968
 20
-69.79949825966935
 30
0.0
 40
0.511352622321557
  0
MTEXT
  5
AE666
330
1F
100
AcDbEntity
  8
HI Text
100
AcDbMText
 10
38.77475459406268
 20
-70.79473539727681
 30
0.0
 40
0.5
 41
0.5059889325313582
 46
0.0
 71
     6
 72
     1
  1
{\fArial|b0|i0|c0|p34;3}
  7
Hunter
 73
     1
 44
1.0
  0
CIRCLE
  5
AE667
330
1F
100
AcDbEntity
  8
HI Text
100
AcDbCircle
 10
38.69177624628115
 20
-70.82508889893109
 30
0.0
 40
0.511352622321557
  0
LEADER
  5
AE668
330
1F
100
AcDbEntity
  8
HI Text
100
AcDbLeader
  3
LandMatters
 76
     3
 10
34.01535932053484
 20
-74.54421384394573
 30
0.0
 10
37.55850372185186
 20
-70.82508889893105
 30
0.0
 10
38.18042362395959
 20
-70.82508889893109
 30
0.0
211
-0.0000000000000002
221
-1.0
231
0.0
1001
ACAD
1000
DSTYLE
1002
{
1070
    41
1040
0.5
1002
}
  0
CIRCLE
  5
AE66C
330
1F
100
AcDbEntity
  8
HI Text
100
AcDbCircle
 10
38.66633254887931
 20
-80.73683125344325
 30
0.0
 40
0.511352622321557
  0
LEADER
  5
AE66D
330
1F
100
AcDbEntity
  8
HI Text
100
AcDbLeader
  3
LandMatters
 76
     3
 10
26.26252239473186
 20
-79.45440643967028
 30
0.0
 10
37.57483487886769
 20
-80.73683125344322
 30
0.0
 10
38.15497992655775
 20
-80.73683125344327
 30
0.0
211
-0.0000000000000002
221
-1.0
231
0.0
1001
ACAD
1000
DSTYLE
1002
{
1070
    41
1040
0.5
1002
}
  0
MTEXT
  5
AE66E
330
1F
100
AcDbEntity
  8
HI Text
100
AcDbMText
 10
38.74931089666084
 20
-80.70647775178898
 30
0.0
 40
0.5
 41
0.0
 46
0.0
 71
     6
 72
     1
  1
{\fArial|b0|i0|c0|p34;5}
  7
Hunter
 73
     1
 44
1.0
  0
MTEXT
  5
AE672
330
1F
100
AcDbEntity
  8
HI Text
100
AcDbMText
 10
38.75946425302121
 20
-81.72908218458141
 30
0.0
 40
0.5
 41
0.0
 46
0.0
 71
     6
 72
     1
  1
{\fArial|b0|i0|c0|p34;6}
  7
Hunter
 73
     1
 44
1.0
  0
LEADER
  5
AE673
330
1F
100
AcDbEntity
  8
HI Text
100
AcDbLeader
  3
LandMatters
 76
     3
 10
29.90903132287531
 20
-83.40287242858423
 30
0.0
 10
37.5432133808104
 20
-81.75943568623566
 30
0.0
 10
38.16513328291812
 20
-81.75943568623571
 30
0.0
211
-0.0000000000000002
221
-1.0
231
0.0
1001
ACAD
1000
DSTYLE
1002
{
1070
    41
1040
0.5
1002
}
  0
CIRCLE
  5
AE674
330
1F
100
AcDbEntity
  8
HI Text
100
AcDbCircle
 10
38.67648590523968
 20
-81.75943568623569
 30
0.0
 40
0.511352622321557
  0
MTEXT
  5
AE675
330
1F
100
AcDbEntity
  8
HI Text
100
AcDbMText
 10
38.77475459406268
 20
-82.75467282384315
 30
0.0
 40
0.5
 41
0.5059889325313582
 46
0.0
 71
     6
 72
     1
  1
{\fArial|b0|i0|c0|p34;7}
  7
Hunter
 73
     1
 44
1.0
  0
CIRCLE
  5
AE676
330
1F
100
AcDbEntity
  8
HI Text
100
AcDbCircle
 10
38.69177624628115
 20
-82.78502632549743
 30
0.0
 40
0.511352622321557
  0
LEADER
  5
AE677
330
1F
100
AcDbEntity
  8
HI Text
100
AcDbLeader
  3
LandMatters
 76
     3
 10
25.81181299768946
 20
-85.65163762136297
 30
0.0
 10
37.55850372185186
 20
-82.7850263254974
 30
0.0
 10
38.18042362395959
 20
-82.78502632549743
 30
0.0
211
-0.0000000000000002
221
-1.0
231
0.0
1001
ACAD
1000
DSTYLE
1002
{
1070
    41
1040
0.5
1002
}
  0
MTEXT
  5
AE678
330
1F
100
AcDbEntity
  8
HI Text
100
AcDbMText
 10
38.70706658732261
 20
-83.81061696475915
 30
0.0
 40
0.5
 41
0.5059889325313582
 46
0.0
 71
     5
 72
     1
  1
{\fArial|b0|i0|c0|p34;8}
  7
Hunter
 73
     1
 44
1.0
  0
CIRCLE
  5
AE679
330
1F
100
AcDbEntity
  8
HI Text
100
AcDbCircle
 10
38.70706658732261
 20
-83.81061696475915
 30
0.0
 40
0.511352622321557
  0
LEADER
  5
AE67A
330
1F
100
AcDbEntity
  8
HI Text
100
AcDbLeader
  3
LandMatters
 76
     3
 10
26.62306404615519
 20
-88.74892849111892
 30
0.0
 10
37.57379406289333
 20
-83.81061696475914
 30
0.0
 10
38.19571396500105
 20
-83.81061696475915
 30
0.0
211
-0.0000000000000002
221
-1.0
231
0.0
1001
ACAD
1000
DSTYLE
1002
{
1070
    41
1040
0.5
1002
}
  0
LINE
  5
AE67C
330
1F
100
AcDbEntity
  8
HI Deatil 2
100
AcDbLine
 10
16.81166509096335
 20
-78.78347051906516
 30
0.0
 11
18.04850583650806
 21
-78.78347051906516
 31
0.0
  0
LWPOLYLINE
  5
AE67D
330
1F
100
AcDbEntity
  8
HI Deatil 2
100
AcDbPolyline
 90
        2
 70
     0
 43
0.0
 10
16.81166509096335
 20
-78.78347051906516
 10
18.04850583650806
 20
-78.78347051906516
  0
LWPOLYLINE
  5
AE67E
330
1F
100
AcDbEntity
  8
HI Deatil 2
100
AcDbPolyline
 90
        2
 70
     0
 43
0.0
 10
16.81166509096338
 20
-79.98661858005201
 10
18.04850583650809
 20
-79.98661858005201
  0
LWPOLYLINE
  5
AE67F
330
1F
100
AcDbEntity
  8
HI Deatil 2
100
AcDbPolyline
 90
        2
 70
     0
 43
0.0
 10
16.44523211556149
 20
-78.78347051906516
 10
16.54204221494894
 20
-78.70407954442441
  0
LWPOLYLINE
  5
AE680
330
1F
100
AcDbEntity
  8
HI Deatil 2
100
AcDbPolyline
 90
        2
 70
     0
 43
0.0
 10
16.81166509096335
 20
-78.78347051906516
 10
16.71241103857662
 20
-78.70339692662209
  0
ARC
  5
AE681
330
1F
100
AcDbEntity
  8
HI Deatil 2
100
AcDbCircle
 10
16.62767336413511
 20
-78.81523565081285
 30
0.0
 40
0.1403152653790171
100
AcDbArc
 50
52.84961315188585
 51
127.6095190880154
  0
LWPOLYLINE
  5
AE682
330
1F
100
AcDbEntity
  8
HI HATCH FILL
100
AcDbPolyline
 90
        2
 70
     0
 43
0.0
 10
16.62711116662022
 20
-78.987017070543
 10
16.62711116662022
 20
-79.78433590007622
  0
LWPOLYLINE
  5
AE683
330
1F
100
AcDbEntity
  8
HI Deatil 2
100
AcDbPolyline
 90
        2
 70
     0
 43
0.0
 10
16.44523211556152
 20
-79.98661858005201
 10
16.54204221494898
 20
-80.06600955469274
  0
LWPOLYLINE
  5
AE684
330
1F
100
AcDbEntity
  8
HI Deatil 2
100
AcDbPolyline
 90
        2
 70
     0
 43
0.0
 10
16.81166509096338
 20
-79.98661858005201
 10
16.71241103857666
 20
-80.06669217249509
  0
ARC
  5
AE685
330
1F
100
AcDbEntity
  8
HI Deatil 2
100
AcDbCircle
 10
16.62767336413516
 20
-79.95485344830432
 30
0.0
 40
0.1403152653790171
100
AcDbArc
 50
232.3904809119844
 51
307.1503868481141
  0
LWPOLYLINE
  5
AE686
330
1F
100
AcDbEntity
  8
HI Deatil 2
100
AcDbPolyline
 90
        2
 70
     0
 43
0.0
 10
18.04850583650806
 20
-78.78347051906516
 10
18.14531593589558
 20
-78.70407954442441
  0
LWPOLYLINE
  5
AE687
330
1F
100
AcDbEntity
  8
HI Deatil 2
100
AcDbPolyline
 90
        2
 70
     0
 43
0.0
 10
18.41493881190995
 20
-78.78347051906516
 10
18.31568475952323
 20
-78.70339692662209
  0
ARC
  5
AE688
330
1F
100
AcDbEntity
  8
HI Deatil 2
100
AcDbCircle
 10
18.23094708508173
 20
-78.81523565081285
 30
0.0
 40
0.1403152653790171
100
AcDbArc
 50
52.84961315188585
 51
127.6095190880154
  0
LWPOLYLINE
  5
AE689
330
1F
100
AcDbEntity
  8
HI HATCH FILL
100
AcDbPolyline
 90
        2
 70
     0
 43
0.0
 10
18.23038488756682
 20
-78.987017070543
 10
18.23038488756682
 20
-79.78433590007622
  0
LWPOLYLINE
  5
AE68A
330
1F
100
AcDbEntity
  8
HI Deatil 2
100
AcDbPolyline
 90
        2
 70
     0
 43
0.0
 10
18.04850583650809
 20
-79.98661858005201
 10
18.14531593589563
 20
-80.06600955469274
  0
LWPOLYLINE
  5
AE68B
330
1F
100
AcDbEntity
  8
HI Deatil 2
100
AcDbPolyline
 90
        2
 70
     0
 43
0.0
 10
18.41493881190999
 20
-79.98661858005201
 10
18.31568475952327
 20
-80.06669217249509
  0
ARC
  5
AE68C
330
1F
100
AcDbEntity
  8
HI Deatil 2
100
AcDbCircle
 10
18.23094708508176
 20
-79.95485344830432
 30
0.0
 40
0.1403152653790171
100
AcDbArc
 50
232.3904809119844
 51
307.1503868481141
  0
CIRCLE
  5
AE68D
330
1F
100
AcDbEntity
  8
HI HATCH FILL
100
AcDbCircle
 10
17.42874802709348
 20
-79.38567648530959
 30
0.0
 40
0.1335487093825943
  0
LINE
  5
AE692
330
1F
100
AcDbEntity
  8
HI Deatil 2
100
AcDbLine
 10
28.64004248347815
 20
-78.78347051906516
 30
0.0
 11
29.06433305044155
 21
-78.78347051906516
 31
0.0
  0
LINE
  5
AE693
330
1F
100
AcDbEntity
  8
HI Deatil 2
100
AcDbLine
 10
29.06433305044155
 20
-78.78347051906516
 30
0.0
 11
29.06433305044155
 21
-78.62162881546414
 31
0.0
  0
LINE
  5
AE694
330
1F
100
AcDbEntity
  8
HI Deatil 2
100
AcDbLine
 10
29.06433305044155
 20
-78.62162881546414
 30
0.0
 11
29.06433305044155
 21
-78.61831217692529
 31
0.0
  0
ARC
  5
AE695
330
1F
100
AcDbEntity
  8
HI Deatil 2
100
AcDbCircle
 10
29.07433305044156
 20
-78.61831217692529
 30
0.0
 40
0.0100000000000051
100
AcDbArc
 50
53.4672244095865
 51
180.0
  0
LINE
  5
AE696
330
1F
100
AcDbEntity
  8
HI Deatil 2
100
AcDbLine
 10
29.0802858757342
 20
-78.61027701227013
 30
0.0
 11
29.09560861801416
 21
-78.62162881546414
 31
0.0
  0
LINE
  5
AE697
330
1F
100
AcDbEntity
  8
HI Deatil 2
100
AcDbLine
 10
29.09560861801417
 20
-78.62162881546414
 30
0.0
 11
29.31406366626058
 21
-78.78347051906516
 31
0.0
  0
LINE
  5
AE698
330
1F
100
AcDbEntity
  8
HI Deatil 2
100
AcDbLine
 10
28.64004248347815
 20
-79.98661858005201
 30
0.0
 11
29.06433305044155
 21
-79.98661858005201
 31
0.0
  0
LINE
  5
AE699
330
1F
100
AcDbEntity
  8
HI Deatil 2
100
AcDbLine
 10
29.06433305044155
 20
-79.98661858005201
 30
0.0
 11
29.06433305044155
 21
-80.15177692219188
 31
0.0
  0
ARC
  5
AE69A
330
1F
100
AcDbEntity
  8
HI Deatil 2
100
AcDbCircle
 10
29.07433305044156
 20
-80.15177692219188
 30
0.0
 40
0.0100000000000051
100
AcDbArc
 50
180.0
 51
306.5327755904135
  0
LINE
  5
AE69B
330
1F
100
AcDbEntity
  8
HI Deatil 2
100
AcDbLine
 10
29.0802858757342
 20
-80.15981208684705
 30
0.0
 11
29.31406366626058
 21
-79.98661858005201
 31
0.0
  0
LINE
  5
AE69C
330
1F
100
AcDbEntity
  8
HI Detail 3
100
AcDbLine
 10
27.09100051373671
 20
-78.37369178299642
 30
0.0
 11
27.09100051373671
 21
-80.44905350342665
 31
0.0
  0
LINE
  5
AE69E
330
1F
100
AcDbEntity
  8
HI Detail 3
100
AcDbLine
 10
26.04734571338796
 20
-80.47721350342673
 30
0.0
 11
27.06284051373675
 21
-80.47721350342673
 31
0.0
  0
ARC
  5
AE69F
330
1F
100
AcDbEntity
  8
HI Detail 3
100
AcDbCircle
 10
27.06284051373675
 20
-80.44905350342665
 30
0.0
 40
0.02816
100
AcDbArc
 50
270.0
 51
0.000000000000007
  0
ARC
  5
AE6A0
330
1F
100
AcDbEntity
  8
HI Detail 3
100
AcDbCircle
 10
27.06284051373675
 20
-78.37369178299642
 30
0.0
 40
0.02816
100
AcDbArc
 50
0.000000000000007
 51
90.0
  0
LINE
  5
AE6A1
330
1F
100
AcDbEntity
  8
HI Detail 3
100
AcDbLine
 10
27.56820473662717
 20
-80.3890546734369
 30
0.0
 11
27.56820473662717
 21
-78.43369061298616
 31
0.0
  0
LINE
  5
AE6A2
330
1F
100
AcDbEntity
  8
HI Detail 3
100
AcDbLine
 10
27.37471098009676
 20
-78.43369061298616
 30
0.0
 11
27.56820473662717
 21
-78.43369061298616
 31
0.0
  0
LINE
  5
AE6A3
330
1F
100
AcDbEntity
  8
HI Detail 3
100
AcDbLine
 10
27.37471098009676
 20
-80.3890546734369
 30
0.0
 11
27.37471098009676
 21
-78.43369061298616
 31
0.0
  0
LINE
  5
AE6A4
330
1F
100
AcDbEntity
  8
HI Detail 3
100
AcDbLine
 10
27.37471098009676
 20
-80.24168078772822
 30
0.0
 11
27.09100051373671
 21
-80.24168078772822
 31
0.0
  0
LINE
  5
AE6A5
330
1F
100
AcDbEntity
  8
HI Detail 3
100
AcDbLine
 10
27.17410864951794
 20
-78.58106449869485
 30
0.0
 11
27.17410864951794
 21
-80.24168078772822
 31
0.0
  0
LINE
  5
AE6A6
330
1F
100
AcDbEntity
  8
HI Detail 3
100
AcDbLine
 10
27.28181167509152
 20
-78.58106449869485
 30
0.0
 11
27.28181167508695
 21
-80.24168078772822
 31
0.0
  0
LINE
  5
AE6A7
330
1F
100
AcDbEntity
  8
HI Detail 3
100
AcDbLine
 10
27.37471098009676
 20
-80.3890546734369
 30
0.0
 11
27.56820473662717
 21
-80.3890546734369
 31
0.0
  0
LINE
  5
AE6A8
330
1F
100
AcDbEntity
  8
HI Detail 3
100
AcDbLine
 10
27.86612977805505
 20
-80.3890546734369
 30
0.0
 11
27.86612977805505
 21
-80.26061852621817
 31
0.0
  0
LINE
  5
AE6A9
330
1F
100
AcDbEntity
  8
HI Detail 3
100
AcDbLine
 10
27.86610783298971
 20
-80.26061852621817
 30
0.0
 11
27.86612977805507
 21
-79.90392004336486
 31
0.0
  0
LINE
  5
AE6AA
330
1F
100
AcDbEntity
  8
HI Detail 3
100
AcDbLine
 10
27.8661121176533
 20
-79.90392004315274
 30
0.0
 11
27.8661245801532
 21
-78.86641623163931
 31
0.0
  0
LINE
  5
AE6AB
330
1F
100
AcDbEntity
  8
HI Detail 3
100
AcDbLine
 10
27.86612977805505
 20
-78.86641624537874
 30
0.0
 11
27.86612977805504
 21
-78.62162881546414
 31
0.0
  0
LINE
  5
AE6AC
330
1F
100
AcDbEntity
  8
HI Detail 3
100
AcDbLine
 10
27.86612977805504
 20
-78.62162881546414
 30
0.0
 11
27.86612977805505
 21
-78.43369061298616
 31
0.0
  0
LINE
  5
AE6AD
330
1F
100
AcDbEntity
  8
HI Detail 3
100
AcDbLine
 10
27.67263602152463
 20
-78.43369061298616
 30
0.0
 11
27.86612977805505
 21
-78.43369061298616
 31
0.0
  0
LINE
  5
AE6AE
330
1F
100
AcDbEntity
  8
HI Detail 3
100
AcDbLine
 10
27.67263602152463
 20
-80.3890546734369
 30
0.0
 11
27.67263602152463
 21
-78.43369061298616
 31
0.0
  0
LINE
  5
AE6AF
330
1F
100
AcDbEntity
  8
HI Detail 3
100
AcDbLine
 10
27.67263602152463
 20
-80.3890546734369
 30
0.0
 11
27.86612977805505
 21
-80.3890546734369
 31
0.0
  0
LINE
  5
AE6B0
330
1F
100
AcDbEntity
  8
HI Detail 3
100
AcDbLine
 10
27.67263602152463
 20
-79.33470154926164
 30
0.0
 11
27.56820473662717
 21
-79.33470154926164
 31
0.0
  0
LINE
  5
AE6B1
330
1F
100
AcDbEntity
  8
HI Detail 3
100
AcDbLine
 10
27.67263602152463
 20
-79.48804373716143
 30
0.0
 11
27.56820473662717
 21
-79.48804373716143
 31
0.0
  0
LINE
  5
AE6B2
330
1F
100
AcDbEntity
  8
HI Detail 3
100
AcDbLine
 10
27.67263602152463
 20
-78.51315909581109
 30
0.0
 11
27.56820473662717
 21
-78.51315909581109
 31
0.0
  0
LINE
  5
AE6B3
330
1F
100
AcDbEntity
  8
HI Detail 3
100
AcDbLine
 10
27.67263602152463
 20
-80.30958619061198
 30
0.0
 11
27.56820473662717
 21
-80.30958619061198
 31
0.0
  0
LINE
  5
AE6B4
330
1F
100
AcDbEntity
  8
HI Detail 3
100
AcDbLine
 10
27.37471098009676
 20
-78.58106449869485
 30
0.0
 11
27.09100051373671
 21
-78.58106449869485
 31
0.0
  0
LINE
  5
AE6B5
330
1F
100
AcDbEntity
  8
HI Detail 3
100
AcDbLine
 10
29.68812302061
 20
-78.86641624537874
 30
0.0
 11
29.68812302060997
 21
-79.90392004336488
 31
0.0
  0
LINE
  5
AE6B6
330
1F
100
AcDbEntity
  8
HI Detail 3
100
AcDbLine
 10
29.11787433572241
 20
-78.73003953144028
 30
0.0
 11
29.11787433572241
 21
-80.04029675730356
 31
0.0
  0
LINE
  5
AE6B7
330
1F
100
AcDbEntity
  8
HI Detail 3
100
AcDbLine
 10
29.11787433572241
 20
-80.04029675730356
 30
0.0
 11
29.30195656521105
 21
-79.90392004336486
 31
0.0
  0
LINE
  5
AE6B8
330
1F
100
AcDbEntity
  8
HI Detail 3
100
AcDbLine
 10
29.30195656521105
 20
-79.90392004336486
 30
0.0
 11
29.30195656521105
 21
-78.86641624537874
 31
0.0
  0
LINE
  5
AE6B9
330
1F
100
AcDbEntity
  8
HI Detail 3
100
AcDbLine
 10
29.11787433572241
 20
-78.73003953144027
 30
0.0
 11
29.30195656521105
 21
-78.86641624537874
 31
0.0
  0
LINE
  5
AE6BA
330
1F
100
AcDbEntity
  8
HI Detail 3
100
AcDbLine
 10
29.30195656521105
 20
-79.90392004336486
 30
0.0
 11
29.68812302061
 21
-79.90392004336488
 31
0.0
  0
LINE
  5
AE6BB
330
1F
100
AcDbEntity
  8
HI Detail 3
100
AcDbLine
 10
29.30195656521105
 20
-78.86641624537874
 30
0.0
 11
29.68812302061
 21
-78.86641624537874
 31
0.0
  0
LINE
  5
AE6BC
330
1F
100
AcDbEntity
  8
HI Detail 3
100
AcDbLine
 10
28.64004248347815
 20
-79.90392004336486
 30
0.0
 11
29.11787433572241
 21
-79.90392004336488
 31
0.0
  0
LINE
  5
AE6BD
330
1F
100
AcDbEntity
  8
HI Detail 3
100
AcDbLine
 10
28.64004248347815
 20
-78.86641624537874
 30
0.0
 11
29.11787433572241
 21
-78.86641624537874
 31
0.0
  0
LINE
  5
AE6BE
330
1F
100
AcDbEntity
  8
HI Detail 3
100
AcDbLine
 10
28.64004248347815
 20
-80.00114508842184
 30
0.0
 11
28.528801659319
 21
-80.00114508842184
 31
0.0
  0
LINE
  5
AE6BF
330
1F
100
AcDbEntity
  8
HI Detail 3
100
AcDbLine
 10
28.64004248347815
 20
-80.00114508842184
 30
0.0
 11
28.64004248347815
 21
-79.98661858005201
 31
0.0
  0
LINE
  5
AE6C0
330
1F
100
AcDbEntity
  8
HI Detail 3
100
AcDbLine
 10
28.64004248347815
 20
-79.98661858005201
 30
0.0
 11
28.64004248347815
 21
-78.78347051906516
 31
0.0
  0
LINE
  5
AE6C1
330
1F
100
AcDbEntity
  8
HI Detail 3
100
AcDbLine
 10
28.64004248347815
 20
-78.78347051906516
 30
0.0
 11
28.64004248347815
 21
-78.76919120032198
 31
0.0
  0
LINE
  5
AE6C2
330
1F
100
AcDbEntity
  8
HI Detail 3
100
AcDbLine
 10
28.528801659319
 20
-80.00114508842184
 30
0.0
 11
28.528801659319
 21
-79.90392004336486
 31
0.0
  0
LINE
  5
AE6C3
330
1F
100
AcDbEntity
  8
HI Detail 3
100
AcDbLine
 10
28.528801659319
 20
-79.90392004336486
 30
0.0
 11
28.528801659319
 21
-78.86641624537874
 31
0.0
  0
LINE
  5
AE6C4
330
1F
100
AcDbEntity
  8
HI Detail 3
100
AcDbLine
 10
28.528801659319
 20
-78.86641624537874
 30
0.0
 11
28.528801659319
 21
-78.76919120032198
 31
0.0
  0
LINE
  5
AE6C5
330
1F
100
AcDbEntity
  8
HI Detail 3
100
AcDbLine
 10
28.64004248347815
 20
-78.76919120032198
 30
0.0
 11
28.528801659319
 21
-78.76919120032198
 31
0.0
  0
LINE
  5
AE6C6
330
1F
100
AcDbEntity
  8
HI Detail 3
100
AcDbLine
 10
27.86612977805507
 20
-79.90392004336486
 30
0.0
 11
28.528801659319
 21
-79.90392004336486
 31
0.0
  0
LINE
  5
AE6C7
330
1F
100
AcDbEntity
  8
HI Detail 3
100
AcDbLine
 10
27.86612977805505
 20
-78.86641624537874
 30
0.0
 11
28.528801659319
 21
-78.86641624537874
 31
0.0
  0
LINE
  5
AE6C8
330
1F
100
AcDbEntity
  8
HI Deatil 2
100
AcDbLine
 10
29.31406366626058
 20
-78.78347051906516
 30
0.0
 11
31.54807089443559
 21
-78.78347051906516
 31
0.0
  0
LINE
  5
AE6C9
330
1F
100
AcDbEntity
  8
HI Deatil 2
100
AcDbLine
 10
33.51777759078406
 20
-78.78347051906516
 30
0.0
 11
35.31395600200528
 21
-78.78347051906516
 31
0.0
  0
LINE
  5
AE6CA
330
1F
100
AcDbEntity
  8
HI Deatil 2
100
AcDbLine
 10
29.31406366626058
 20
-79.98661858005201
 30
0.0
 11
31.54807089443555
 21
-79.98661858005201
 31
0.0
  0
LINE
  5
AE6CB
330
1F
100
AcDbEntity
  8
HI Deatil 2
100
AcDbLine
 10
33.51777759078402
 20
-79.98661858005201
 30
0.0
 11
34.27551841574874
 21
-79.98661858005201
 31
0.0
  0
LINE
  5
AE6CC
330
1F
100
AcDbEntity
  8
HI Deatil 2
100
AcDbLine
 10
33.1513446153822
 20
-78.78347051906516
 30
0.0
 11
31.91450386983748
 21
-78.78347051906516
 31
0.0
  0
LWPOLYLINE
  5
AE6CD
330
1F
100
AcDbEntity
  8
HI Deatil 2
100
AcDbPolyline
 90
        2
 70
     0
 43
0.0
 10
33.1513446153822
 20
-78.78347051906516
 10
31.91450386983748
 20
-78.78347051906516
  0
LWPOLYLINE
  5
AE6CE
330
1F
100
AcDbEntity
  8
HI Deatil 2
100
AcDbPolyline
 90
        2
 70
     0
 43
0.0
 10
33.15134461538217
 20
-79.98661858005201
 10
31.91450386983746
 20
-79.98661858005201
  0
LWPOLYLINE
  5
AE6CF
330
1F
100
AcDbEntity
  8
HI Deatil 2
100
AcDbPolyline
 90
        2
 70
     0
 43
0.0
 10
33.51777759078406
 20
-78.78347051906516
 10
33.4209674913966
 20
-78.70407954442441
  0
LWPOLYLINE
  5
AE6D0
330
1F
100
AcDbEntity
  8
HI Deatil 2
100
AcDbPolyline
 90
        2
 70
     0
 43
0.0
 10
33.1513446153822
 20
-78.78347051906516
 10
33.25059866776892
 20
-78.70339692662209
  0
ARC
  5
AE6D1
330
1F
100
AcDbEntity
  8
HI Deatil 2
100
AcDbCircle
 10
33.33533634221043
 20
-78.81523565081285
 30
0.0
 40
0.1403152653790171
100
AcDbArc
 50
52.39048091198458
 51
127.1503868481141
  0
LWPOLYLINE
  5
AE6D2
330
1F
100
AcDbEntity
  8
HI HATCH FILL
100
AcDbPolyline
 90
        2
 70
     0
 43
0.0
 10
33.33589853972533
 20
-78.987017070543
 10
33.33589853972533
 20
-79.78433590007622
  0
LWPOLYLINE
  5
AE6D3
330
1F
100
AcDbEntity
  8
HI Deatil 2
100
AcDbPolyline
 90
        2
 70
     0
 43
0.0
 10
33.51777759078402
 20
-79.98661858005201
 10
33.42096749139656
 20
-80.06600955469274
  0
LWPOLYLINE
  5
AE6D4
330
1F
100
AcDbEntity
  8
HI Deatil 2
100
AcDbPolyline
 90
        2
 70
     0
 43
0.0
 10
33.15134461538217
 20
-79.98661858005201
 10
33.25059866776888
 20
-80.06669217249509
  0
ARC
  5
AE6D5
330
1F
100
AcDbEntity
  8
HI Deatil 2
100
AcDbCircle
 10
33.33533634221039
 20
-79.95485344830432
 30
0.0
 40
0.1403152653790171
100
AcDbArc
 50
232.8496131518859
 51
307.6095190880155
  0
LWPOLYLINE
  5
AE6D6
330
1F
100
AcDbEntity
  8
HI Deatil 2
100
AcDbPolyline
 90
        2
 70
     0
 43
0.0
 10
31.91450386983748
 20
-78.78347051906516
 10
31.81769377044996
 20
-78.70407954442441
  0
LWPOLYLINE
  5
AE6D7
330
1F
100
AcDbEntity
  8
HI Deatil 2
100
AcDbPolyline
 90
        2
 70
     0
 43
0.0
 10
31.54807089443559
 20
-78.78347051906516
 10
31.64732494682232
 20
-78.70339692662209
  0
ARC
  5
AE6D8
330
1F
100
AcDbEntity
  8
HI Deatil 2
100
AcDbCircle
 10
31.73206262126381
 20
-78.81523565081285
 30
0.0
 40
0.1403152653790171
100
AcDbArc
 50
52.39048091198458
 51
127.1503868481141
  0
LWPOLYLINE
  5
AE6D9
330
1F
100
AcDbEntity
  8
HI HATCH FILL
100
AcDbPolyline
 90
        2
 70
     0
 43
0.0
 10
31.73262481877872
 20
-78.987017070543
 10
31.73262481877872
 20
-79.78433590007622
  0
LWPOLYLINE
  5
AE6DA
330
1F
100
AcDbEntity
  8
HI Deatil 2
100
AcDbPolyline
 90
        2
 70
     0
 43
0.0
 10
31.91450386983746
 20
-79.98661858005201
 10
31.81769377044992
 20
-80.06600955469274
  0
LWPOLYLINE
  5
AE6DB
330
1F
100
AcDbEntity
  8
HI Deatil 2
100
AcDbPolyline
 90
        2
 70
     0
 43
0.0
 10
31.54807089443555
 20
-79.98661858005201
 10
31.64732494682227
 20
-80.06669217249509
  0
ARC
  5
AE6DC
330
1F
100
AcDbEntity
  8
HI Deatil 2
100
AcDbCircle
 10
31.73206262126379
 20
-79.95485344830432
 30
0.0
 40
0.1403152653790171
100
AcDbArc
 50
232.8496131518859
 51
307.6095190880155
  0
CIRCLE
  5
AE6DD
330
1F
100
AcDbEntity
  8
HI HATCH FILL
100
AcDbCircle
 10
32.53426167925206
 20
-79.38567648530959
 30
0.0
 40
0.1335487093825943
  0
HATCH
  5
AE717
330
1F
100
AcDbEntity
  8
HI HATCH FILL
100
AcDbHatch
 10
0.0
 20
0.0
 30
0.0
210
0.0
220
0.0
230
1.0
  2
AR-SAND
 70
     0
 71
     0
 91
        1
 92
        1
 93
       78
 72
     1
 10
27.09100051373671
 20
-78.58106449869485
 11
27.09100051373671
 21
-78.37369178299642
 72
     1
 10
27.09100051373671
 20
-78.37369178299642
 11
27.08275264069497
 21
-78.3537796560382
 72
     1
 10
27.08275264069497
 20
-78.3537796560382
 11
27.06284051373675
 21
-78.34553178299642
 72
     1
 10
27.06284051373675
 20
-78.34553178299642
 11
22.90016919260879
 21
-78.34553178299635
 72
     1
 10
22.90016919260879
 20
-78.34553178299635
 11
22.88025706565058
 21
-78.3537796560382
 72
     1
 10
22.88025706565058
 20
-78.3537796560382
 11
22.87200919260879
 21
-78.37369178299642
 72
     1
 10
22.87200919260879
 20
-78.37369178299642
 11
22.87200919260884
 21
-78.58106449869485
 72
     1
 10
22.87200919260884
 20
-78.58106449869485
 11
22.58829872624879
 21
-78.58106449869483
 72
     1
 10
22.58829872624879
 20
-78.58106449869483
 11
22.58829872624879
 21
-78.43369061298616
 72
     1
 10
22.58829872624879
 20
-78.43369061298616
 11
22.39480496971837
 21
-78.43369061298616
 72
     1
 10
22.39480496971837
 20
-78.43369061298616
 11
22.39480496971837
 21
-78.51315909581109
 72
     1
 10
22.39480496971837
 20
-78.51315909581109
 11
22.29037368482091
 21
-78.51315909581109
 72
     1
 10
22.29037368482091
 20
-78.51315909581109
 11
22.29037368482091
 21
-78.43369061298616
 72
     1
 10
22.29037368482091
 20
-78.43369061298616
 11
22.0968799282905
 21
-78.43369061298616
 72
     1
 10
22.0968799282905
 20
-78.43369061298616
 11
22.0968799282905
 21
-78.86641624537874
 72
     1
 10
22.0968799282905
 20
-78.86641624537874
 11
21.43420804702655
 21
-78.86641624537874
 72
     1
 10
21.43420804702655
 20
-78.86641624537874
 11
21.43420804702655
 21
-78.76919120032198
 72
     1
 10
21.43420804702655
 20
-78.76919120032198
 11
21.3229672228674
 21
-78.76919120032198
 72
     1
 10
21.3229672228674
 20
-78.76919120032198
 11
21.3229672228674
 21
-78.78347051906516
 72
     1
 10
21.3229672228674
 20
-78.78347051906516
 11
20.89867665590399
 21
-78.78347051906516
 72
     1
 10
20.89867665590399
 20
-78.78347051906516
 11
20.89867665590399
 21
-78.62162881546414
 72
     1
 10
20.89867665590399
 20
-78.62162881546414
 11
20.89317508602313
 21
-78.60938110048046
 72
     1
 10
20.89317508602313
 20
-78.60938110048046
 11
20.88272383061135
 21
-78.61027701227013
 72
     1
 10
20.88272383061135
 20
-78.61027701227013
 11
20.64894604008497
 21
-78.78347051906516
 72
     1
 10
20.64894604008497
 20
-78.78347051906516
 11
18.41493881190995
 21
-78.78347051906516
 72
     1
 10
18.41493881190995
 20
-78.78347051906516
 11
18.315684759522
 21
-78.7033969266211
 72
     1
 10
18.315684759522
 20
-78.7033969266211
 11
18.27913242796579
 21
-78.68345345767004
 72
     1
 10
18.27913242796579
 20
-78.68345345767004
 11
18.23094708508173
 21
-78.67492038543383
 72
     1
 10
18.23094708508173
 20
-78.67492038543383
 11
18.18200265828672
 21
-78.68373349575792
 72
     1
 10
18.18200265828672
 20
-78.68373349575792
 11
18.14531593589627
 21
-78.70407954442384
 72
     1
 10
18.14531593589627
 20
-78.70407954442384
 11
18.04850583650806
 21
-78.78347051906516
 72
     1
 10
18.04850583650806
 20
-78.78347051906516
 11
16.81166509096335
 21
-78.78347051906516
 72
     1
 10
16.81166509096335
 20
-78.78347051906516
 11
16.71241103857559
 21
-78.70339692662125
 72
     1
 10
16.71241103857559
 20
-78.70339692662125
 11
16.6775791172498
 21
-78.6840953080329
 72
     1
 10
16.6775791172498
 20
-78.6840953080329
 11
16.64096302478685
 21
-78.67555115411352
 72
     1
 10
16.64096302478685
 20
-78.67555115411352
 11
16.59650049139725
 21
-78.67842693141364
 72
     1
 10
16.59650049139725
 20
-78.67842693141364
 11
16.56296468192842
 21
-78.69073199566386
 72
     1
 10
16.56296468192842
 20
-78.69073199566386
 11
16.54204221494907
 21
-78.70407954442431
 72
     1
 10
16.54204221494907
 20
-78.70407954442431
 11
16.44523211556149
 21
-78.78347051906516
 72
     1
 10
16.44523211556149
 20
-78.78347051906516
 11
14.64905370434025
 21
-78.78347051906516
 72
     1
 10
14.64905370434025
 20
-78.78347051906516
 11
14.64905370434025
 21
-74.54421384394573
 72
     1
 10
14.64905370434025
 20
-74.54421384394573
 11
35.31395600200529
 21
-74.54421384394575
 72
     1
 10
35.31395600200529
 20
-74.54421384394575
 11
35.31395600200528
 21
-78.78347051906516
 72
     1
 10
35.31395600200528
 20
-78.78347051906516
 11
33.51777759078406
 21
-78.78347051906516
 72
     1
 10
33.51777759078406
 20
-78.78347051906516
 11
33.4209674913966
 21
-78.70407954442441
 72
     1
 10
33.4209674913966
 20
-78.70407954442441
 11
33.38294629398357
 21
-78.68324449129622
 72
     1
 10
33.38294629398357
 20
-78.68324449129622
 11
33.34404851326953
 21
-78.67519111584693
 72
     1
 10
33.34404851326953
 20
-78.67519111584693
 11
33.31208572643597
 21
-78.67686013793397
 72
     1
 10
33.31208572643597
 20
-78.67686013793397
 11
33.28186615893937
 21
-78.68550780800591
 72
     1
 10
33.28186615893937
 20
-78.68550780800591
 11
33.25059866776884
 21
-78.7033969266221
 72
     1
 10
33.25059866776884
 20
-78.7033969266221
 11
33.1513446153822
 21
-78.78347051906516
 72
     1
 10
33.1513446153822
 20
-78.78347051906516
 11
31.91450386983748
 21
-78.78347051906516
 72
     1
 10
31.91450386983748
 20
-78.78347051906516
 11
31.81769377044996
 21
-78.70407954442441
 72
     1
 10
31.81769377044996
 20
-78.70407954442441
 11
31.76602123507563
 21
-78.67909165995624
 72
     1
 10
31.76602123507563
 20
-78.67909165995624
 11
31.73262481877874
 21
-78.67492151170941
 72
     1
 10
31.73262481877874
 20
-78.67492151170941
 11
31.68284279352022
 21
-78.68383632716438
 72
     1
 10
31.68284279352022
 20
-78.68383632716438
 11
31.64732494682334
 21
-78.70339692662125
 72
     1
 10
31.64732494682334
 20
-78.70339692662125
 11
31.54807089443559
 21
-78.78347051906516
 72
     1
 10
31.54807089443559
 20
-78.78347051906516
 11
29.31406366626058
 21
-78.78347051906516
 72
     1
 10
29.31406366626058
 20
-78.78347051906516
 11
29.08794724687418
 21
-78.61595291386713
 72
     1
 10
29.08794724687418
 20
-78.61595291386713
 11
29.07831825086247
 21
-78.60914058068442
 72
     1
 10
29.07831825086247
 20
-78.60914058068442
 11
29.06983462032242
 21
-78.60938110048046
 72
     1
 10
29.06983462032242
 20
-78.60938110048046
 11
29.06514494806165
 21
-78.61436518127589
 72
     1
 10
29.06514494806165
 20
-78.61436518127589
 11
29.06433305044155
 21
-78.61997049619471
 72
     1
 10
29.06433305044155
 20
-78.61997049619471
 11
29.06433305044155
 21
-78.78347051906516
 72
     1
 10
29.06433305044155
 20
-78.78347051906516
 11
28.64004248347815
 21
-78.78347051906516
 72
     1
 10
28.64004248347815
 20
-78.78347051906516
 11
28.64004248347815
 21
-78.76919120032198
 72
     1
 10
28.64004248347815
 20
-78.76919120032198
 11
28.528801659319
 21
-78.76919120032198
 72
     1
 10
28.528801659319
 20
-78.76919120032198
 11
28.528801659319
 21
-78.86641624537874
 72
     1
 10
28.528801659319
 20
-78.86641624537874
 11
27.86612977805505
 21
-78.86641624537876
 72
     1
 10
27.86612977805505
 20
-78.86641624537876
 11
27.86612977805504
 21
-78.43369061298616
 72
     1
 10
27.86612977805504
 20
-78.43369061298616
 11
27.67263602152463
 21
-78.43369061298616
 72
     1
 10
27.67263602152463
 20
-78.43369061298616
 11
27.67263602152463
 21
-78.51315909581109
 72
     1
 10
27.67263602152463
 20
-78.51315909581109
 11
27.56820473662717
 21
-78.51315909581109
 72
     1
 10
27.56820473662717
 20
-78.51315909581109
 11
27.56820473662717
 21
-78.43369061298616
 72
     1
 10
27.56820473662717
 20
-78.43369061298616
 11
27.37471098009676
 21
-78.43369061298616
 72
     1
 10
27.37471098009676
 20
-78.43369061298616
 11
27.37471098009676
 21
-78.58106449869485
 72
     1
 10
27.37471098009676
 20
-78.58106449869485
 11
27.09100051373671
 21
-78.58106449869485
 97
        0
 75
     1
 76
     1
 52
0.0
 41
0.25
 77
     0
 78
     4
 53
37.5
 43
14.64905370434025
 44
-78.86641624537876
 45
-0.0157483395274021
 46
0.4817059422532897
 79
     6
 49
0.0
 49
-0.38
 49
0.0
 49
-0.425
 49
0.0
 49
-0.40625
 53
7.499999999999999
 43
14.64905370434025
 44
-78.86641624537876
 45
0.4424441763169318
 46
0.7055365163074351
 79
     6
 49
0.0
 49
-0.205
 49
0.0
 49
-0.3425
 49
0.0
 49
-0.13125
 53
327.5
 43
14.34155370434025
 44
-78.86641624537876
 45
0.7785354654378738
 46
0.0014147633842412
 79
     6
 49
0.0
 49
-0.125
 49
0.0
 49
-0.45
 49
0.0
 49
-0.5875
 53
317.5
 43
14.34155370434025
 44
-78.86641624537876
 45
0.7515316511430735
 46
0.2194188912335623
 79
     6
 49
0.0
 49
-0.0625
 49
0.0
 49
-0.295
 49
0.0
 49
-0.3375
 98
        1
 10
0.0
 20
0.0
1001
GradientColor1ACI
1070
     5
1001
GradientColor2ACI
1070
     2
1001
ACAD
1010
0.0
1020
0.0
1030
0.0
  0
CIRCLE
  5
AE750
330
1F
100
AcDbEntity
  8
HI Text
100
AcDbCircle
 10
38.64602583615857
 20
-79.71432763250149
 30
0.0
 40
0.511352622321557
  0
LEADER
  5
AE751
330
1F
100
AcDbEntity
  8
HI Text
100
AcDbLeader
  3
LandMatters
 76
     3
 10
31.69578749638109
 20
-77.68265014644258
 30
0.0
 10
37.55452816614695
 20
-79.71432763250146
 30
0.0
 10
38.13467321383701
 20
-79.71432763250151
 30
0.0
211
-0.0000000000000002
221
-1.0
231
0.0
1001
ACAD
1000
DSTYLE
1002
{
1070
    41
1040
0.5
1002
}
  0
MTEXT
  5
AE752
330
1F
100
AcDbEntity
  8
HI Text
100
AcDbMText
 10
38.7290041839401
 20
-79.68397413084722
 30
0.0
 40
0.5
 41
0.0
 46
0.0
 71
     6
 72
     1
  1
{\fArial|b0|i0|c0|p34;4}
  7
Hunter
 73
     1
 44
1.0
  0
VIEWPORT
  5
A21C6
102
{ACAD_XDICTIONARY
360
A21C7
102
}
330
A21B8
100
AcDbEntity
 67
     1
  8
0
100
AcDbViewport
 10
5.379608251091793
 20
3.879980799414523
 30
0.0
 40
21.92908682225825
 41
10.60034404030225
 68
     1
 69
     1
 12
5.379608251091793
 22
3.879980799414523
 13
0.0
 23
0.0
 14
0.5
 24
0.5
 15
0.5
 25
0.5
 16
0.0
 26
0.0
 36
1.0
 17
0.0
 27
0.0
 37
0.0
 42
50.0
 43
0.0
 44
0.0
 45
10.60034404030225
 50
0.0
 51
0.0
 72
  1000
 90
   819232
  1

281
     0
 71
     1
 74
     0
110
0.0
120
0.0
130
0.0
111
1.0
121
0.0
131
0.0
112
0.0
122
1.0
132
0.0
 79
     0
146
0.0
170
     0
 61
     5
348
9F
292
     1
282
     1
141
0.0
142
0.0
 63
   250
421
  3355443
  0
VIEWPORT
  5
A21CA
102
{ACAD_XDICTIONARY
360
A21CB
102
}
330
A21B8
100
AcDbEntity
 67
     1
  8
HI No Print
100
AcDbViewport
 10
5.14477344054908
 20
3.904943799045813
 30
0.0
 40
10.25899498546174
 41
7.782805874275823
 68
     2
 69
     2
 12
31.36077996782584
 22
-82.42480703496084
 13
0.0
 23
0.0
 14
0.5
 24
0.5
 15
0.5
 25
0.5
 16
0.0
 26
0.0
 36
1.0
 17
0.0
 27
0.0
 37
0.0
 42
50.0
 43
0.0
 44
0.0
 45
39.48264762423541
 50
0.0
 51
0.0
 72
  1000
 90
   557664
  1

281
     0
 71
     1
 74
     0
110
0.0
120
0.0
130
0.0
111
1.0
121
0.0
131
0.0
112
0.0
122
1.0
132
0.0
 79
     0
146
0.0
170
     0
 61
     5
348
9F
292
     1
282
     1
141
0.0
142
0.0
 63
   250
421
  3355443
  0
ENDSEC
  0
SECTION
  2
OBJECTS
  0
DICTIONARY
  5
C
330
0
100
AcDbDictionary
281
     1
  3
ACAD_CIP_PREVIOUS_PRODUCT_INFO
350
5C44A
  3
ACAD_COLOR
350
73
  3
ACAD_DETAILVIEWSTYLE
350
5C43F
  3
ACAD_GROUP
350
D
  3
ACAD_IMAGE_DICT
350
620BA
  3
ACAD_IMAGE_VARS
350
9DA
  3
ACAD_LAYOUT
350
1A
  3
ACAD_MATERIAL
350
72
  3
ACAD_MLEADERSTYLE
350
A33
  3
ACAD_MLINESTYLE
350
17
  3
ACAD_PLOTSETTINGS
350
19
  3
ACAD_PLOTSTYLENAME
350
E
  3
ACAD_RENDER_ACTIVE_RAPIDRT_SETTINGS
350
A0A35
  3
ACAD_RENDER_ACTIVE_SETTINGS
350
A15E5
  3
ACAD_SCALELIST
350
A11
  3
ACAD_SECTIONVIEWSTYLE
350
5C43D
  3
ACAD_TABLESTYLE
350
86
  3
ACAD_VISUALSTYLE
350
99
  3
ACAD_WIPEOUT_VARS
350
14083
  3
AcadDim
350
45186
  3
AcadDim_CRX
350
95AB0
  3
AcAec
350
5C6BE
  3
ACDB_RECOMPOSE_DATA
350
AE7AC
  3
AcDbVariableDictionary
350
66
  3
AEC_CLASSIFICATION_SYSTEM_DEFS
350
F6
  3
AEC_CLEANUP_GROUP_DEFS
350
5C691
  3
AEC_DISP_REP_CONFIGURATIONS
350
5C68F
  3
AEC_DISP_REP_SETS
350
5C686
  3
AEC_DISP_REPS
350
5C560
  3
AEC_DISPLAY_PROPS_DEFAULTS
350
5C562
  3
AEC_LAYERKEY_STYLES
350
5C693
  3
AEC_PROPERTY_SET_DEFS
350
F7
  3
AEC_VARS
350
5C565
  0
DICTIONARY
  5
B51
330
8
100
AcDbDictionary
280
     1
281
     1
  0
DICTIONARY
  5
E7
330
2
100
AcDbDictionary
280
     1
281
     1
  3
ACAD_LAYERFILTERS
360
1DD06
  3
ACAD_LAYERSTATES
360
E8
  3
ACLYDICTIONARY
360
1DD05
  0
DICTIONARY
  5
A6C
330
10
100
AcDbDictionary
280
     1
281
     1
  3
ADSK_XREC_LAYER_RECONCILED
360
A6D
  0
DICTIONARY
  5
9EC2C
330
9EC2B
100
AcDbDictionary
280
     1
281
     1
  0
DICTIONARY
  5
AE1AF
330
AE1AE
100
AcDbDictionary
280
     1
281
     1
  0
DICTIONARY
  5
A62
330
1F
100
AcDbDictionary
280
     1
281
     1
  3
ACAD_SORTENTS
360
A63
  0
DICTIONARY
  5
A21AF
330
A21AE
100
AcDbDictionary
280
     1
281
     1
  3
ASDK_XREC_ANNOTATION_SCALE_INFO
360
A21B0
  0
DICTIONARY
  5
A21B3
330
A21B2
100
AcDbDictionary
280
     1
281
     1
  3
ASDK_XREC_ANNOTATION_SCALE_INFO
360
A21B4
  0
DICTIONARY
  5
AE52B
330
AE52A
100
AcDbDictionary
280
     1
281
     1
  3
ACAD_MTEXT_2008_RT
360
AE7AB
  0
DICTIONARY
  5
AE52F
330
AE52E
100
AcDbDictionary
280
     1
281
     1
  0
DICTIONARY
  5
AE613
330
AE612
100
AcDbDictionary
280
     1
281
     1
  0
DICTIONARY
  5
A21C7
330
A21C6
100
AcDbDictionary
280
     1
281
     1
  3
ASDK_XREC_ANNOTATION_SCALE_INFO
360
A21C8
  0
DICTIONARY
  5
A21CB
330
A21CA
100
AcDbDictionary
280
     1
281
     1
  3
ASDK_XREC_ANNOTATION_SCALE_INFO
360
A21CC
  0
XRECORD
  5
5C44A
102
{ACAD_REACTORS
330
C
102
}
330
C
100
AcDbXrecord
280
     1
300
ACD
300
2015
300
ACD_F_S
  0
DICTIONARY
  5
73
102
{ACAD_REACTORS
330
C
102
}
330
C
100
AcDbDictionary
281
     1
  0
DICTIONARY
  5
5C43F
102
{ACAD_REACTORS
330
C
102
}
330
C
100
AcDbDictionary
281
     1
  3
Imperial24
350
5C440
  0
DICTIONARY
  5
D
102
{ACAD_REACTORS
330
C
102
}
330
C
100
AcDbDictionary
281
     1
  0
DICTIONARY
  5
620BA
102
{ACAD_REACTORS
330
C
102
}
330
C
100
AcDbDictionary
281
     1
  0
RASTERVARIABLES
  5
9DA
102
{ACAD_REACTORS
330
C
102
}
330
C
100
AcDbRasterVariables
 90
        0
 70
     1
 71
     1
 72
     5
  0
DICTIONARY
  5
1A
102
{ACAD_REACTORS
330
C
102
}
330
C
100
AcDbDictionary
281
     1
  3
8.5 X 11
350
A21A1
  3
A4
350
A21B9
  3
Model
350
22
  0
DICTIONARY
  5
72
102
{ACAD_REACTORS
330
C
102
}
330
C
100
AcDbDictionary
281
     1
  3
ByBlock
350
97
  3
ByLayer
350
96
  3
Global
350
98
  0
DICTIONARY
  5
A33
102
{ACAD_REACTORS
330
C
102
}
330
C
100
AcDbDictionary
281
     1
  3
Standard
350
A34
  0
DICTIONARY
  5
17
102
{ACAD_REACTORS
330
C
102
}
330
C
100
AcDbDictionary
281
     1
  3
Standard
350
18
  0
DICTIONARY
  5
19
102
{ACAD_REACTORS
330
C
102
}
330
C
100
AcDbDictionary
281
     1
  3
500 - 24x36
350
E0
  3
500 - 30x42 Landscape
350
DE
  3
500 - 30x42 Portrait
350
DF
  3
6200 8.5x11
350
1052
  3
9800 - 11x17 Reduced
350
E1
  3
K550 - 8x11 Reduced
350
E2
  0
ACDBDICTIONARYWDFLT
  5
E
102
{ACAD_REACTORS
330
C
102
}
330
C
100
AcDbDictionary
281
     1
  3
Normal
350
F
100
AcDbDictionaryWithDefault
340
F
  0
ACAD_PROXY_OBJECT
  5
A0A35
102
{ACAD_REACTORS
330
C
102
}
330
C
100
AcDbProxyObject
 90
      499
 91
      769
 95
  3276827
 70
     0
162
               534
311
419340194019001A401D401B4024690401C001C001B001A4019401CC008000D4008001C8019401B80190019401C801A401B8019C008001B0019401D8019401B001CC00
161
               201
310
40AE40E4150140502000000000000021000000000000000840CC
 94
        0
  0
MENTALRAYRENDERSETTINGS
  5
A15E5
102
{ACAD_XDICTIONARY
360
A15E6
102
}
102
{ACAD_REACTORS
330
C
102
}
330
C
100
AcDbRenderSettings
 90
        2
  1
Medium
290
     1
290
     1
290
     1
290
     1
  1

  1

 90
        0
100
AcDbMentalRayRenderSettings
 90
        2
 90
        0
 90
        1
 70
     2
 40
3.0
 40
3.0
 40
0.0500000007450581
 40
0.0500000007450581
 40
0.0500000007450581
 40
0.0500000007450581
 70
     0
290
     0
290
     1
 90
        5
 90
        5
 90
        5
290
     0
 90
      500
290
     0
 40
1.0
 90
    10000
 90
        5
 90
        5
 90
        5
290
     0
 90
      200
290
     0
290
     0
290
     0
 40
1.0
 40
1.0
 40
1500.0
 70
     0
 70
     0
 40
10.0
 70
     0
 70
     0
290
     0
  1

 90
       32
 70
     0
 90
     1048
290
     0
 40
1.0
  0
DICTIONARY
  5
A11
102
{ACAD_REACTORS
330
C
102
}
330
C
100
AcDbDictionary
281
     1
  3
*A1
350
4D48B
  3
*A2
350
4D48C
  3
*A3
350
5C55A
  3
*A4
350
5C55B
  3
A0
350
A12
  3
A1
350
1DC91
  3
A2
350
1DC92
  3
A3
350
1DC93
  3
A4
350
1DC94
  3
A5
350
1DC95
  3
A6
350
1DC96
  3
A7
350
1DC97
  3
A8
350
1DC98
  3
A9
350
1DC99
  3
B0
350
1DC9A
  3
B1
350
1DC9B
  3
B2
350
1DC9C
  3
B3
350
1DC9D
  3
B4
350
1DC9E
  3
B5
350
1DC9F
  3
B6
350
1DCA0
  3
B7
350
1DCA1
  3
B8
350
1DCA2
  3
B9
350
1DCA3
  3
C0
350
1DCA4
  3
C1
350
1DCA5
  3
C2
350
1DCA6
  3
C3
350
1DCA7
  3
C4
350
1DCA8
  3
C5
350
1DCA9
  3
C6
350
1DCAA
  3
C7
350
1DCAB
  3
C8
350
1DCAC
  3
C9
350
1DCAD
  3
D0
350
1DCAE
  3
D1
350
1DCAF
  3
D2
350
1DCB0
  0
DICTIONARY
  5
5C43D
102
{ACAD_REACTORS
330
C
102
}
330
C
100
AcDbDictionary
281
     1
  3
Imperial24
350
5C43E
  0
DICTIONARY
  5
86
102
{ACAD_REACTORS
330
C
102
}
330
C
100
AcDbDictionary
281
     1
  3
Standard
350
87
  0
DICTIONARY
  5
99
102
{ACAD_REACTORS
330
C
102
}
330
C
100
AcDbDictionary
281
     1
  3
2dWireframe
350
9F
  3
3D Hidden
350
A1
  3
3dWireframe
350
A0
  3
Basic
350
9E
  3
Brighten
350
A5
  3
ColorChange
350
A9
  3
Conceptual
350
A2
  3
Dim
350
A4
  3
EdgeColorOff
350
5C43C
  3
Facepattern
350
A8
  3
Flat
350
9A
  3
FlatWithEdges
350
9B
  3
Gouraud
350
9C
  3
GouraudWithEdges
350
9D
  3
Hidden
350
5C434
  3
JitterOff
350
5C43A
  3
Linepattern
350
A7
  3
OverhangOff
350
5C43B
  3
Realistic
350
A3
  3
Shaded
350
5C439
  3
Shaded with edges
350
5C438
  3
Shades of Gray
350
5C435
  3
Sketchy
350
5C436
  3
Thicken
350
A6
  3
Wireframe
350
5C433
  3
X-Ray
350
5C437
  0
WIPEOUTVARIABLES
  5
14083
102
{ACAD_REACTORS
330
C
102
}
330
C
100
AcDbWipeoutVariables
 70
     1
  0
XRECORD
  5
45186
102
{ACAD_REACTORS
330
C
102
}
330
C
100
AcDbXrecord
280
     1
 90
   990106
  3

 60
     0
 61
     0
 62
     1
 63
     3
 64
     0
 65
     0
 66
     0
 67
     3
 68
     1
 69
     0
 70
     0
 71
     0
 72
     0
 40
0.0
170
     0
  0
XRECORD
  5
95AB0
102
{ACAD_REACTORS
330
C
102
}
330
C
100
AcDbXrecord
280
     1
 90
   990106
  3

 60
     0
 61
     0
 62
     1
 63
     3
 64
     0
 65
     0
 66
     0
 67
     3
 68
     1
 69
     0
 70
     0
 71
     0
 72
     0
 40
0.0
170
     0
  0
DICTIONARY
  5
5C6BE
102
{ACAD_REACTORS
330
C
102
}
330
C
100
AcDbDictionary
281
     1
  3
AcAecLayerManager
350
5C6BF
  0
XRECORD
  5
AE7AC
102
{ACAD_REACTORS
330
C
102
}
330
C
100
AcDbXrecord
280
     1
 90
        1
330
87
330
5C43E
330
5C440
330
AE52A
330
AE612
  0
DICTIONARY
  5
66
102
{ACAD_REACTORS
330
C
102
}
330
C
100
AcDbDictionary
281
     1
  3
CANNOSCALE
350
B5D
  3
CMLEADERSTYLE
350
B5C
  3
CTABLESTYLE
350
89
  3
CVIEWDETAILSTYLE
350
66F55
  3
CVIEWSECTIONSTYLE
350
66F56
  3
DIMASSOC
350
67
  3
HIDETEXT
350
6B
  3
HPCOLOR
350
9D9A7
  3
HPTRANSPARENCY
350
9D9A6
  3
LAYEREVAL
350
25751
  3
LAYERNOTIFY
350
25752
  3
LIGHTINGUNITS
350
F79
  3
MSLTSCALE
350
F78
  0
DICTIONARY
  5
F6
102
{ACAD_REACTORS
330
C
102
}
330
C
100
AcDbDictionary
281
     1
  0
DICTIONARY
  5
5C691
102
{ACAD_REACTORS
330
C
102
}
330
C
100
AcDbDictionary
281
     1
  3
Standard
350
5C692
  0
DICTIONARY
  5
5C68F
102
{ACAD_REACTORS
330
C
102
}
330
C
100
AcDbDictionary
281
     1
  3
Medium Detail
350
5C6A8
  3
Standard
350
5C690
  0
DICTIONARY
  5
5C686
102
{ACAD_REACTORS
330
C
102
}
330
C
100
AcDbDictionary
281
     1
  3
Elevation
350
5C68A
  3
Model
350
5C687
  3
Model High Detail
350
5C68E
  3
Model Low Detail
350
5C68D
  3
Plan
350
5C688
  3
Plan Diagnostic
350
5C6AB
  3
Plan High Detail
350
5C68C
  3
Plan Low Detail
350
5C68B
  3
Reflected
350
5C689
  3
Section_Elev
350
5C6AE
  0
DICTIONARY
  5
5C560
102
{ACAD_REACTORS
330
C
102
}
330
C
100
AcDbDictionary
281
     1
  3
AecDbDispRep2dSection
350
5C564
  3
AecDbDispRepAnchor
350
5C568
  3
AecDbDispRepAnchorBubToGrid
350
5C604
  3
AecDbDispRepAnchorBubToGridMdl
350
5C621
  3
AecDbDispRepAnchorBubToGridRcp
350
5C608
  3
AecDbDispRepAnchorEntToNode
350
5C569
  3
AecDbDispRepAnchorExtendedTagToEnt
350
5C56B
  3
AecDbDispRepAnchorTagToEnt
350
5C561
  3
AecDbDispRepBdgElevLineModel
350
5C61D
  3
AecDbDispRepBdgElevLinePlan
350
5C5B4
  3
AecDbDispRepBdgElevLinePlan100
350
5C5B8
  3
AecDbDispRepBdgElevLinePlan50
350
5C5F6
  3
AecDbDispRepBdgElevLineRcp
350
5C60E
  3
AecDbDispRepBdgSectionLineModel
350
5C615
  3
AecDbDispRepBdgSectionLinePlan
350
5C5C6
  3
AecDbDispRepBdgSectionLinePlan100
350
5C5BA
  3
AecDbDispRepBdgSectionLinePlan50
350
5C5E9
  3
AecDbDispRepBdgSectionLineRcp
350
5C61B
  3
AecDbDispRepBdgSectionModel
350
5C610
  3
AecDbDispRepBdgSectionSubDiv
350
5C611
  3
AecDbDispRepCeilingGrid
350
5C5BE
  3
AecDbDispRepCeilingGridModel
350
5C613
  3
AecDbDispRepCeilingGridPlan100
350
5C5B6
  3
AecDbDispRepCeilingGridPlan50
350
5C5F0
  3
AecDbDispRepCeilingGridRcp
350
5C606
  3
AecDbDispRepClipVolModel
350
5C56D
  3
AecDbDispRepClipVolPlan
350
5C573
  3
AecDbDispRepClipVolResSubDiv
350
5C579
  3
AecDbDispRepClipVolResult
350
5C580
  3
AecDbDispRepColumnGrid
350
5C5C8
  3
AecDbDispRepColumnGridModel
350
5C617
  3
AecDbDispRepColumnGridPlan100
350
5C5C0
  3
AecDbDispRepColumnGridPlan50
350
5C5E7
  3
AecDbDispRepColumnGridRcp
350
5C619
  3
AecDbDispRepCurtainWallLayoutModel
350
5C61F
  3
AecDbDispRepCurtainWallLayoutPlan
350
5C5BC
  3
AecDbDispRepCurtainWallLayoutPlan100
350
5C5CA
  3
AecDbDispRepCurtainWallLayoutPlan50
350
5C5F8
  3
AecDbDispRepCurtainWallUnitModel
350
5C60A
  3
AecDbDispRepCurtainWallUnitPlan
350
5C5C2
  3
AecDbDispRepCurtainWallUnitPlan100
350
5C5C4
  3
AecDbDispRepCurtainWallUnitPlan50
350
5C5E5
  3
AecDbDispRepDimGroupPlan
350
5C645
  3
AecDbDispRepDimGroupPlan100
350
5C60C
  3
AecDbDispRepDimGroupPlan50
350
5C62B
  3
AecDbDispRepDisplayTheme
350
5C588
  3
AecDbDispRepDoorElev
350
5C635
  3
AecDbDispRepDoorModel
350
5C62D
  3
AecDbDispRepDoorNominal
350
5C639
  3
AecDbDispRepDoorPlan
350
5C63F
  3
AecDbDispRepDoorPlan50
350
5C62F
  3
AecDbDispRepDoorPlanHekto
350
5C625
  3
AecDbDispRepDoorRcp
350
5C641
  3
AecDbDispRepDoorThresholdPlan
350
5C631
  3
AecDbDispRepDoorThresholdSymbolPlan
350
5C623
  3
AecDbDispRepEditInPlaceProfile
350
5C571
  3
AecDbDispRepEntRef
350
5C575
  3
AecDbDispRepLayoutCurve
350
5C577
  3
AecDbDispRepLayoutGrid2d
350
5C56F
  3
AecDbDispRepLayoutGrid3d
350
5C57B
  3
AecDbDispRepMaskBlockRef
350
5C57E
  3
AecDbDispRepMaskBlockRefRcp
350
5C633
  3
AecDbDispRepMassElemModel
350
5C592
  3
AecDbDispRepMassElemPlan100
350
5C63B
  3
AecDbDispRepMassElemPlan50
350
5C637
  3
AecDbDispRepMassElemRcp
350
5C63D
  3
AecDbDispRepMassElemSchem
350
5C58C
  3
AecDbDispRepMassGroupModel
350
5C590
  3
AecDbDispRepMassGroupPlan
350
5C58E
  3
AecDbDispRepMassGroupPlan100
350
5C643
  3
AecDbDispRepMassGroupPlan50
350
5C627
  3
AecDbDispRepMassGroupRcp
350
5C629
  3
AecDbDispRepMaterial
350
5C586
  3
AecDbDispRepMaterial$General Medium Detail
350
5C6B1
  3
AecDbDispRepMvBlockRef
350
5C581
  3
AecDbDispRepMvBlockRef$Plan
350
5C6B4
  3
AecDbDispRepMvBlockRefModel
350
5C57D
  3
AecDbDispRepMvBlockRefPlan100
350
5C5CC
  3
AecDbDispRepMvBlockRefPlan50
350
5C5EB
  3
AecDbDispRepMvBlockRefRcp
350
5C64F
  3
AecDbDispRepOpening
350
5C64D
  3
AecDbDispRepOpeningModel
350
5C647
  3
AecDbDispRepOpeningPlan100
350
5C650
  3
AecDbDispRepOpeningPlan50
350
5C649
  3
AecDbDispRepOpeningPlanReflected
350
5C64B
  3
AecDbDispRepOpeningSillPlan
350
5C652
  3
AecDbDispRepPolygonModel
350
5C582
  3
AecDbDispRepPolygonTrueColour
350
5C584
  3
AecDbDispRepRailingModel
350
5C65E
  3
AecDbDispRepRailingPlan
350
5C654
  3
AecDbDispRepRailingPlan100
350
5C65A
  3
AecDbDispRepRailingPlan50
350
5C65C
  3
AecDbDispRepRoofModel
350
5C656
  3
AecDbDispRepRoofPlan
350
5C5CF
  3
AecDbDispRepRoofPlan100
350
5C5DF
  3
AecDbDispRepRoofPlan50
350
5C5F2
  3
AecDbDispRepRoofRcp
350
5C658
  3
AecDbDispRepRoofSlabModel
350
5C668
  3
AecDbDispRepRoofSlabPlan
350
5C5CD
  3
AecDbDispRepRoofSlabPlan100
350
5C5D5
  3
AecDbDispRepRoofSlabPlan50
350
5C5FA
  3
AecDbDispRepScheduleTable
350
5C684
  3
AecDbDispRepSlabModel
350
5C672
  3
AecDbDispRepSlabPlan
350
5C5DB
  3
AecDbDispRepSlabPlan100
350
5C5D1
  3
AecDbDispRepSlabPlan50
350
5C5F4
  3
AecDbDispRepSlice
350
5C58A
  3
AecDbDispRepSpaceDecomposed
350
5C666
  3
AecDbDispRepSpaceModel
350
5C66C
  3
AecDbDispRepSpacePlan
350
5C5D3
  3
AecDbDispRepSpacePlan100
350
5C5D7
  3
AecDbDispRepSpacePlan50
350
5C5FE
  3
AecDbDispRepSpaceRcp
350
5C664
  3
AecDbDispRepSpaceVolume
350
5C66E
  3
AecDbDispRepStairModel
350
5C660
  3
AecDbDispRepStairPlan
350
5C662
  3
AecDbDispRepStairPlan100
350
5C66A
  3
AecDbDispRepStairPlan50
350
5C670
  3
AecDbDispRepStairPlanOverlapping
350
5C5A6
  3
AecDbDispRepStairRcp
350
5C5A4
  3
AecDbDispRepWallGraph
350
5C5AA
  3
AecDbDispRepWallModel
350
5C596
  3
AecDbDispRepWallPlan
350
5C5DD
  3
AecDbDispRepWallPlan100
350
5C5D9
  3
AecDbDispRepWallPlan50
350
5C5FC
  3
AecDbDispRepWallRcp
350
5C59A
  3
AecDbDispRepWallSchem
350
5C5AC
  3
AecDbDispRepWindowAssemblyModel
350
5C5AE
  3
AecDbDispRepWindowAssemblyPlan
350
5C5EC
  3
AecDbDispRepWindowAssemblyPlan100
350
5C5EE
  3
AecDbDispRepWindowAssemblyPlan50
350
5C602
  3
AecDbDispRepWindowAssemblySillPlan
350
5C5A8
  3
AecDbDispRepWindowElev
350
5C594
  3
AecDbDispRepWindowModel
350
5C5A2
  3
AecDbDispRepWindowNominal
350
5C5B2
  3
AecDbDispRepWindowPlan
350
5C59C
  3
AecDbDispRepWindowPlan100
350
5C59E
  3
AecDbDispRepWindowPlan50
350
5C598
  3
AecDbDispRepWindowRcp
350
5C5B0
  3
AecDbDispRepWindowSillPlan
350
5C5A0
  3
AecDbDispRepZone
350
5C5E3
  3
AecDbDispRepZonePlan100
350
5C5E1
  3
AecDbDispRepZonePlan50
350
5C600
  3
AecsDbDispRepMemberElevationDesign
350
5C67C
  3
AecsDbDispRepMemberElevationDetail
350
5C678
  3
AecsDbDispRepMemberLogical
350
5C676
  3
AecsDbDispRepMemberModelDesign
350
5C67A
  3
AecsDbDispRepMemberModelDetail
350
5C674
  3
AecsDbDispRepMemberPlanDesign
350
5C67E
  3
AecsDbDispRepMemberPlanDetail
350
5C680
  3
AecsDbDispRepMemberPlanSketch
350
5C682
  0
DICTIONARY
  5
5C562
102
{ACAD_REACTORS
330
C
102
}
330
C
100
AcDbDictionary
281
     1
  3
*A1
350
5C563
  3
*A10
350
5C64C
  3
*A100
350
5C5F3
  3
*A101
350
5C5B9
  3
*A102
350
5C63C
  3
*A103
350
5C5A3
  3
*A104
350
5C62E
  3
*A105
350
5C5BF
  3
*A106
350
5C597
  3
*A107
350
5C5F9
  3
*A108
350
5C5CB
  3
*A109
350
5C5C5
  3
*A11
350
5C61C
  3
*A110
350
5C5C7
  3
*A111
350
5C5AB
  3
*A112
350
5C60B
  3
*A113
350
5C651
  3
*A114
350
5C56E
  3
*A115
350
5C5B5
  3
*A116
350
5C63E
  3
*A117
350
5C583
  3
*A118
350
5C599
  3
*A119
350
5C65F
  3
*A12
350
5C614
  3
*A120
350
5C5D2
  3
*A121
350
5C663
  3
*A122
350
5C5C1
  3
*A123
350
5C659
  3
*A124
350
5C5D8
  3
*A125
350
5C57A
  3
*A126
350
5C5F5
  3
*A127
350
5C5DC
  3
*A128
350
5C5C9
  3
*A129
350
5C626
  3
*A13
350
5C671
  3
*A130
350
5C59B
  3
*A131
350
5C5CE
  3
*A132
350
5C632
  3
*A133
350
5C63A
  3
*A134
350
5C67B
  3
*A135
350
5C5FB
  3
*A136
350
5C5DA
  3
*A137
350
5C677
  3
*A138
350
5C5FF
  3
*A139
350
5C5A5
  3
*A14
350
5C616
  3
*A140
350
5C603
  3
*A141
350
5C570
  3
*A142
350
5C578
  3
*A15
350
5C5F7
  3
*A16
350
5C661
  3
*A17
350
5C58D
  3
*A18
350
5C61A
  3
*A19
350
5C601
  3
*A2
350
5C589
  3
*A20
350
5C576
  3
*A21
350
5C5C3
  3
*A22
350
5C5E2
  3
*A23
350
5C59D
  3
*A24
350
5C669
  3
*A25
350
5C622
  3
*A26
350
5C5A1
  3
*A27
350
5C60F
  3
*A28
350
5C595
  3
*A29
350
5C628
  3
*A3
350
5C644
  3
*A30
350
5C57F
  3
*A31
350
5C648
  3
*A32
350
5C62C
  3
*A33
350
5C618
  3
*A34
350
5C67D
  3
*A35
350
5C5B1
  3
*A36
350
5C5E4
  3
*A37
350
5C61E
  3
*A38
350
5C56A
  3
*A39
350
5C572
  3
*A4
350
5C607
  3
*A40
350
5C5BB
  3
*A41
350
5C64E
  3
*A42
350
5C62A
  3
*A43
350
5C5B7
  3
*A44
350
5C653
  3
*A45
350
5C5F1
  3
*A46
350
5C66B
  3
*A47
350
5C657
  3
*A48
350
5C630
  3
*A49
350
5C567
  3
*A5
350
5C574
  3
*A50
350
5C64A
  3
*A51
350
5C59F
  3
*A52
350
5C5D4
  3
*A53
350
5C66F
  3
*A54
350
5C655
  3
*A55
350
5C5D0
  3
*A56
350
5C673
  3
*A57
350
5C612
  3
*A58
350
5C634
  3
*A59
350
5C5E6
  3
*A6
350
5C5EF
  3
*A60
350
5C5A7
  3
*A61
350
5C679
  3
*A62
350
5C5EA
  3
*A63
350
5C665
  3
*A64
350
5C5DE
  3
*A65
350
5C67F
  3
*A66
350
5C57C
  3
*A67
350
5C5AD
  3
*A68
350
5C585
  3
*A69
350
5C683
  3
*A7
350
5C685
  3
*A70
350
5C66D
  3
*A71
350
5C5BD
  3
*A72
350
5C5FD
  3
*A73
350
5C636
  3
*A74
350
5C675
  3
*A75
350
5C5ED
  3
*A76
350
5C646
  3
*A77
350
5C65B
  3
*A78
350
5C609
  3
*A79
350
5C58B
  3
*A8
350
5C60D
  3
*A80
350
5C681
  3
*A81
350
5C605
  3
*A82
350
5C58F
  3
*A83
350
5C642
  3
*A84
350
5C5A9
  3
*A85
350
5C593
  3
*A86
350
5C6B7
  3
*A87
350
5C5D6
  3
*A88
350
5C65D
  3
*A89
350
5C587
  3
*A9
350
5C5E0
  3
*A90
350
5C5E8
  3
*A91
350
5C624
  3
*A92
350
5C5AF
  3
*A93
350
5C591
  3
*A94
350
5C620
  3
*A95
350
5C5B3
  3
*A96
350
5C667
  3
*A97
350
5C56C
  3
*A98
350
5C638
  3
*A99
350
5C640
  0
DICTIONARY
  5
5C693
102
{ACAD_REACTORS
330
C
102
}
330
C
100
AcDbDictionary
281
     1
  3
AIA (256 Color)
350
5C6B8
  0
DICTIONARY
  5
F7
102
{ACAD_REACTORS
330
C
102
}
330
C
100
AcDbDictionary
281
     1
  0
DICTIONARY
  5
5C565
102
{ACAD_REACTORS
330
C
102
}
330
C
100
AcDbDictionary
281
     1
  3
AEC_VARS_ARCHBASE
350
5C6BB
  3
AEC_VARS_DWG_SETUP
350
5C566
  3
AEC_VARS_STRUCTUREBASE
350
5C6BC
  3
AECMX_VARS_MUNICH
350
5C6BD
  0
DICTIONARY
  5
1DD06
102
{ACAD_REACTORS
330
E7
102
}
330
E7
100
AcDbDictionary
281
     1
  0
DICTIONARY
  5
E8
102
{ACAD_REACTORS
330
E7
102
}
330
E7
100
AcDbDictionary
281
     1
  0
DICTIONARY
  5
1DD05
102
{ACAD_REACTORS
330
E7
102
}
330
E7
100
AcDbDictionary
281
     1
1001
ACAD
1000
<All
  0
XRECORD
  5
A6D
102
{ACAD_REACTORS
330
A6C
102
}
330
A6C
100
AcDbXrecord
280
     1
290
     1
  0
SORTENTSTABLE
  5
A63
102
{ACAD_REACTORS
330
A62
102
}
330
A62
100
AcDbSortentsTable
330
1F
331
AE61D
  5
AE620
331
AE697
  5
AE69A
331
AE619
  5
AE61C
331
AE654
  5
AE658
331
AE615
  5
AE618
331
AE693
  5
AE696
331
AE53E
  5
AE541
331
AE650
  5
AE653
331
AE6CE
  5
AE6D1
331
AE611
  5
AE615
331
AE68B
  5
AE692
331
AE6CA
  5
AE6CD
331
AE64C
  5
AE64F
331
AE60D
  5
AE610
331
AE536
  5
AE539
331
AE648
  5
AE64B
331
AE609
  5
AE60C
331
AE532
  5
AE535
331
AE687
  5
AE68A
331
AE6C6
  5
AE6C9
331
AE644
  5
AE647
331
AE605
  5
AE608
331
AE52E
  5
AE532
331
AE683
  5
AE686
331
AE6C2
  5
AE6C5
331
AE640
  5
AE643
331
AE601
  5
AE604
331
AE52A
  5
AE52E
331
AE67F
  5
AE682
331
AE6BE
  5
AE6C1
331
AE6BA
  5
AE6BD
331
AE63C
  5
AE63F
331
AE526
  5
AE529
331
AE55D
  5
AE560
331
AE638
  5
AE63B
331
AE522
  5
AE525
331
AE559
  5
AE55C
331
AE677
  5
AE67A
331
AE6B6
  5
AE6B9
331
AE634
  5
AE637
331
AE51E
  5
AE521
331
AE555
  5
AE558
331
AE751
  5
AE751
331
AE673
  5
AE676
331
AE6B2
  5
AE6B5
331
AE630
  5
AE633
331
AE51A
  5
AE496
331
AE551
  5
AE554
331
AE6AE
  5
AE6B1
331
AE6AA
  5
AE6AD
331
AE62C
  5
AE62F
331
AE54D
  5
AE550
331
AE3DA
  5
AE51D
331
AE549
  5
AE54C
331
AE6DD
  5
AE717
331
AE667
  5
AE66A
331
AE6A6
  5
AE6A9
331
AE624
  5
AE627
331
AE545
  5
AE548
331
AE6D9
  5
AE6DC
331
AE663
  5
AE666
331
AE6A2
  5
AE6A5
331
AE620
  5
AE623
331
AE541
  5
AE544
331
AE6D5
  5
AE6D8
331
AE65F
  5
AE662
331
AE69E
  5
AE6A1
331
AE6D1
  5
AE6D4
331
AE69A
  5
AE69E
331
AE61C
  5
AE61F
331
AE618
  5
AE61B
331
AE696
  5
AE699
331
AE653
  5
AE656
331
AE614
  5
AE617
331
AE53D
  5
AE540
331
AE692
  5
AE695
331
AE610
  5
AE614
331
AE6CD
  5
AE6D0
331
AE6C9
  5
AE6CC
331
AE68A
  5
AE68D
331
AE64F
  5
AE652
331
AE64B
  5
AE64E
331
AE60C
  5
AE60F
331
AE535
  5
AE538
331
AE647
  5
AE64A
331
AE608
  5
AE60B
331
AE6C5
  5
AE6C8
331
AE686
  5
AE689
331
AE531
  5
AE534
331
AE643
  5
AE646
331
AE604
  5
AE607
331
AE6C1
  5
AE6C4
331
AE682
  5
AE685
331
AE52D
  5
AE531
331
AE6BD
  5
AE6C0
331
AE67E
  5
AE681
331
AE529
  5
AE52D
331
AE6B9
  5
AE6BC
331
AE67A
  5
AE67D
331
AE63F
  5
AE642
331
AE63B
  5
AE63E
331
AE525
  5
AE528
331
AE55C
  5
AE55F
331
AE637
  5
AE63A
331
AE6B5
  5
AE6B8
331
AE676
  5
AE679
331
AE521
  5
AE524
331
AE558
  5
AE55B
331
AE633
  5
AE636
331
AE750
  5
AE750
331
AE6B1
  5
AE6B4
331
AE672
  5
AE675
331
AE51D
  5
AE520
331
AE554
  5
AE557
331
AE6AD
  5
AE6B0
331
AE66E
  5
AE671
331
AE550
  5
AE553
331
AE6A9
  5
AE6AC
331
AE62F
  5
AE632
331
AE62B
  5
AE62E
331
AE54C
  5
AE54F
331
AE6DC
  5
AE70A
331
AE666
  5
AE669
331
AE6A5
  5
AE6A8
331
AE548
  5
AE54B
331
AE623
  5
AE626
331
AE6D8
  5
AE6DB
331
AE662
  5
AE665
331
AE6A1
  5
AE6A4
331
AE544
  5
AE547
331
AE6D4
  5
AE6D7
331
AE65E
  5
AE661
331
AE540
  5
AE543
331
AE6D0
  5
AE6D3
331
AE65A
  5
AE65F
331
AE699
  5
AE69C
331
AE61F
  5
AE622
331
AE61B
  5
AE61E
331
AE656
  5
AE65A
331
AE695
  5
AE698
331
AE617
  5
AE61A
331
AE53C
  5
AE53F
331
AE652
  5
AE655
331
AE6CC
  5
AE6CF
331
AE68D
  5
AE694
331
AE538
  5
AE53B
331
AE6C8
  5
AE6CB
331
AE689
  5
AE68C
331
AE64E
  5
AE651
331
AE60F
  5
AE612
331
AE64A
  5
AE64D
331
AE534
  5
AE537
331
AE60B
  5
AE60E
331
AE646
  5
AE649
331
AE6C4
  5
AE6C7
331
AE685
  5
AE688
331
AE530
  5
AE533
331
AE607
  5
AE60A
331
AE642
  5
AE645
331
AE6C0
  5
AE6C3
331
AE681
  5
AE684
331
AE52C
  5
AE530
331
AE603
  5
AE606
331
AE6BC
  5
AE6BF
331
AE67D
  5
AE680
331
AE528
  5
AE52C
331
AE6B8
  5
AE6BB
331
AE679
  5
AE67C
331
AE55F
  5
AE562
331
AE63E
  5
AE641
331
AE524
  5
AE527
331
AE55B
  5
AE55E
331
AE63A
  5
AE63D
331
AE6B4
  5
AE6B7
331
AE675
  5
AE678
331
AE520
  5
AE523
331
AE557
  5
AE55A
331
AE636
  5
AE639
331
AE6B0
  5
AE6B3
331
AE717
  5
AE51A
331
AE51C
  5
AE51F
331
AE553
  5
AE556
331
AE632
  5
AE635
331
AE66D
  5
AE670
331
AE6AC
  5
AE6AF
331
AE6A8
  5
AE6AB
331
AE62E
  5
AE631
331
AE54F
  5
AE552
331
AE62A
  5
AE62D
331
AE54B
  5
AE54E
331
AE626
  5
AE629
331
AE665
  5
AE668
331
AE6A4
  5
AE6A7
331
AE6DB
  5
AE709
331
AE547
  5
AE54A
331
AE622
  5
AE625
331
AE661
  5
AE664
331
AE6A0
  5
AE6A3
331
AE6D7
  5
AE6DA
331
AE543
  5
AE546
331
AE65D
  5
AE660
331
AE69C
  5
AE6A0
331
AE6D3
  5
AE6D6
331
AE659
  5
AE65E
331
AE698
  5
AE69B
331
AE61E
  5
AE621
331
AE61A
  5
AE61D
331
AE655
  5
AE659
331
AE616
  5
AE619
331
AE694
  5
AE697
331
AE53F
  5
AE542
331
AE651
  5
AE654
331
AE6CF
  5
AE6D2
331
AE612
  5
AE616
331
AE68C
  5
AE693
331
AE6CB
  5
AE6CE
331
AE688
  5
AE68B
331
AE64D
  5
AE650
331
AE60E
  5
AE611
331
AE537
  5
AE53A
331
AE649
  5
AE64C
331
AE60A
  5
AE60D
331
AE6C7
  5
AE6CA
331
AE533
  5
AE536
331
AE645
  5
AE648
331
AE684
  5
AE687
331
AE6C3
  5
AE6C6
331
AE606
  5
AE609
331
AE641
  5
AE644
331
AE680
  5
AE683
331
AE6BF
  5
AE6C2
331
AE602
  5
AE605
331
AE67C
  5
AE67F
331
AE6BB
  5
AE6BE
331
AE678
  5
AE67B
331
AE63D
  5
AE640
331
AE527
  5
AE52A
331
AE55E
  5
AE561
331
AE639
  5
AE63C
331
AE6B7
  5
AE6BA
331
AE523
  5
AE526
331
AE55A
  5
AE55D
331
AE635
  5
AE638
331
AE752
  5
AE752
331
AE674
  5
AE677
331
AE6B3
  5
AE6B6
331
AE51F
  5
AE522
331
AE556
  5
AE559
331
AE631
  5
AE634
331
AE6AF
  5
AE6B2
331
AE51B
  5
AE51E
331
AE552
  5
AE555
331
AE66C
  5
AE66F
331
AE6AB
  5
AE6AE
331
AE668
  5
AE66B
331
AE62D
  5
AE630
331
AE54E
  5
AE551
331
AE629
  5
AE62C
331
AE6A7
  5
AE6AA
331
AE54A
  5
AE54D
331
AE625
  5
AE628
331
AE664
  5
AE667
331
AE6A3
  5
AE6A6
331
AE6DA
  5
AE6DD
331
AE546
  5
AE549
331
AE621
  5
AE624
331
AE660
  5
AE663
331
AE69F
  5
AE6A2
331
AE6D6
  5
AE6D9
331
AE542
  5
AE545
331
AE69B
  5
AE69F
331
AE6D2
  5
AE6D5
331
AE658
  5
AE65D
  0
XRECORD
  5
A21B0
102
{ACAD_REACTORS
330
A21AF
102
}
330
A21AF
100
AcDbXrecord
280
     1
 90
        1
340
1DCB0
  0
XRECORD
  5
A21B4
102
{ACAD_REACTORS
330
A21B3
102
}
330
A21B3
100
AcDbXrecord
280
     1
 90
        1
340
A12
  0
XRECORD
  5
AE7AB
102
{ACAD_REACTORS
330
AE52B
102
}
330
AE52B
100
AcDbXrecord
280
     1
 40
289031.0
  1
\pxql;{\fArial|b0|i0|c0|p34;PROFESSIONAL LANDSCAPE DRIPLINE - CONNECTION WITH PVC RISER AND TEE}
  0
XRECORD
  5
A21C8
102
{ACAD_REACTORS
330
A21C7
102
}
330
A21C7
100
AcDbXrecord
280
     1
 90
        1
340
1DCB0
  0
XRECORD
  5
A21CC
102
{ACAD_REACTORS
330
A21CB
102
}
330
A21CB
100
AcDbXrecord
280
     1
 90
        1
340
A12
  0
ACDBDETAILVIEWSTYLE
  5
5C440
102
{ACAD_XDICTIONARY
360
A21DF
102
}
102
{ACAD_REACTORS
330
5C43F
102
}
330
5C43F
100
AcDbModelDocViewStyle
 70
     0
  3
Imperial24
290
     0
100
AcDbDetailViewStyle
 70
     0
 71
     0
 90
        3
 71
     1
340
11
 62
   256
 40
0.24
340
0
 62
   256
 40
0.24
300

 40
0.36
280
     3
 71
     2
340
16
 90
       25
 62
   256
 71
     3
340
11
 62
   256
 40
0.24
 90
        1
 40
0.75
 90
        1
300
%<\AcVar ViewType \f "%tc1">% %<\AcVar ViewDetailId>%\PSCALE %<\AcVar ViewScale \f "%sn">%
 71
     4
340
16
 90
       25
 62
   256
340
16
 90
       25
 62
   256
280
     0
  0
LAYOUT
  5
A21A1
102
{ACAD_REACTORS
330
1A
102
}
330
1A
100
AcDbPlotSettings
  1

  2
DWG To PDF.pc3
  4
ANSI_A_(8.50_x_11.00_Inches)
  6

 40
5.793749809265136
 41
17.79375076293945
 42
5.793746948242187
 43
17.79376220703125
 44
215.8999938964844
 45
279.3999938964844
 46
0.0
 47
0.0
 48
0.0
 49
0.0
140
0.0
141
0.0
142
1.0
143
1.0
 70
   688
 72
     0
 73
     1
 74
     5
  7
Standard Pen Settings.ctb
 75
    16
147
1.0
 76
     0
 77
     2
 78
   300
148
0.0
149
0.0
100
AcDbLayout
  1
8.5 X 11
 70
     1
 71
     1
 10
-0.7005418191744587
 20
-0.2281003861915408
 11
10.29945794052965
 21
8.271899373512569
 12
0.0
 22
0.0
 32
0.0
 14
0.0460402222469014
 24
0.0401186204693573
 34
-0.0015258207003583
 15
9.568821384571574
 25
7.999140916809832
 35
0.0000000349246037
146
0.0
 13
0.0
 23
0.0
 33
0.0
 16
1.0
 26
0.0
 36
0.0
 17
0.0
 27
1.0
 37
0.0
 76
     0
330
A21A0
331
A21AE
1001
ACAD_PSEXT
1000
DWG To PDF.pc3
1000
DWG To PDF
1000
File
1000

1070
     0
  0
LAYOUT
  5
A21B9
102
{ACAD_REACTORS
330
1A
102
}
330
1A
100
AcDbPlotSettings
  1

  2
DWG To PDF.pc3
  4
ISO_A4_(210.00_x_297.00_MM)
  6

 40
5.793749809265136
 41
17.79375076293945
 42
5.793746948242187
 43
17.79376220703125
 44
210.0
 45
297.0
 46
0.0
 47
0.0
 48
0.0
 49
0.0
140
0.0
141
0.0
142
1.0
143
0.0393700787401575
 70
   672
 72
     1
 73
     1
 74
     5
  7
Standard Pen Settings.ctb
 75
    16
147
25.4
 76
     0
 77
     2
 78
   300
148
0.0
149
0.0
100
AcDbLayout
  1
A4
 70
     1
 71
     2
 10
-0.7005418191744587
 20
-0.2281003861915408
 11
10.99237156665231
 21
8.039616149241531
 12
0.0
 22
0.0
 32
0.0
 14
0.0145643619954186
 24
0.0132348038147043
 34
-0.0000000349181948
 15
10.27458914444549
 25
7.796388667592996
 35
0.0000000814935746
146
0.0
 13
0.0
 23
0.0
 33
0.0
 16
1.0
 26
0.0
 36
0.0
 17
0.0
 27
1.0
 37
0.0
 76
     0
330
A21B8
331
A21C6
1001
ACAD_PSEXT
1000
DWG To PDF.pc3
1000
DWG To PDF
1000
File
1000

1070
     0
  0
LAYOUT
  5
22
102
{ACAD_XDICTIONARY
360
66EB6
102
}
102
{ACAD_REACTORS
330
1A
102
}
330
1A
100
AcDbPlotSettings
  1

  2
DWG To PDF.pc3
  4
ANSI_full_bleed_A_(8.50_x_11.00_Inches)
  6

 40
0.7937499880790711
 41
0.7937499880790711
 42
0.7937469482421875
 43
0.79376220703125
 44
215.8999938964844
 45
279.3999938964844
 46
30.37052290086102
 47
0.0
 48
-146.9342066687381
 49
-1.639012634498612
140
-81.17209046769231
141
34.71350671378767
142
1.0
143
6.012536734408003
 70
 11956
 72
     0
 73
     1
 74
     4
  7
Standard Pen Settings.ctb
 75
     0
147
0.1663191501645703
 76
     0
 77
     2
 78
   300
148
3732.128849385947
149
41.63092091626476
100
AcDbLayout
  1
Model
 70
     1
 71
     0
 10
0.0
 20
0.0
 11
12.0
 21
9.0
 12
0.0
 22
0.0
 32
0.0
 14
0.0
 24
0.0
 34
0.0
 15
0.0
 25
0.0
 35
0.0
146
0.0
 13
0.0
 23
0.0
 33
0.0
 16
1.0
 26
0.0
 36
0.0
 17
0.0
 27
1.0
 37
0.0
 76
     0
330
1F
331
DAB
1001
ACAD_PSEXT
1000
DWG To PDF.pc3
1000
DWG To PDF
1000
File
1000

1070
     0
  0
MATERIAL
  5
97
102
{ACAD_REACTORS
330
72
102
}
330
72
100
AcDbMaterial
  1
ByBlock
 73
     1
 78
     1
172
     1
176
     1
270
     1
274
     1
 94
       63
  0
MATERIAL
  5
96
102
{ACAD_REACTORS
330
72
102
}
330
72
100
AcDbMaterial
  1
ByLayer
 73
     1
 78
     1
172
     1
176
     1
270
     1
274
     1
 94
       63
  0
MATERIAL
  5
98
102
{ACAD_REACTORS
330
72
102
}
330
72
100
AcDbMaterial
  1
Global
 73
     1
 78
     1
172
     1
176
     1
270
     1
274
     1
 94
       63
  0
MLEADERSTYLE
  5
A34
102
{ACAD_REACTORS
330
A33
102
}
330
A33
100
AcDbMLeaderStyle
179
     2
170
     2
171
     1
172
     0
 90
        2
 40
0.0
 41
0.0
173
     1
 91
-1056964608
340
14
 92
       -2
290
     1
 42
0.09
291
     1
 43
0.36
  3
Standard
 44
0.18
300

342
11
174
     1
178
     6
175
     1
176
     0
 93
-1056964608
 45
0.18
292
     0
297
     0
 46
0.18
 94
-1056964608
 47
1.0
 49
1.0
140
1.0
293
     1
141
0.0
294
     1
177
     0
142
1.0
295
     0
296
     0
143
0.125
271
     0
272
     9
273
     9
298
     0
  0
MLINESTYLE
  5
18
102
{ACAD_REACTORS
330
17
102
}
330
17
100
AcDbMlineStyle
  2
STANDARD
 70
     0
  3

 62
   256
 51
90.0
 52
90.0
 71
     2
 49
0.5
 62
   256
  6
BYLAYER
 49
-0.5
 62
   256
  6
BYLAYER
  0
PLOTSETTINGS
  5
E0
102
{ACAD_REACTORS
330
19
102
}
330
19
100
AcDbPlotSettings
  1
500 - 24x36
  2
HP DesignJet 500 42 by HP.pc3
  4
User1659
  6

 40
0.0
 41
0.0
 42
0.0
 43
0.0
 44
914.4000244140626
 45
609.6000366210937
 46
0.0000122070312948
 47
0.000018310546897
 48
0.0
 49
0.0
140
36.0
141
24.0
142
1.0
143
1.0
 70
  2740
 72
     0
 73
     0
 74
     4
  7
DVD 2005.ctb
 75
    16
147
1.0
 76
     0
 77
     2
 78
   300
148
0.0
149
0.0
1001
ACAD_PSEXT
1000
HP DesignJet 500 42 by HP.pc3
1000
HP DesignJet 500 42 by HP
1000
\\bobxp2
1000

1070
     0
  0
PLOTSETTINGS
  5
DE
102
{ACAD_REACTORS
330
19
102
}
330
19
100
AcDbPlotSettings
  1
500 - 30x42 Landscape
  2
HP DesignJet 500 42 by HP.pc3
  4
User637
  6

 40
0.0
 41
0.0
 42
0.0
 43
0.0
 44
762.0
 45
1066.800048828125
 46
-0.0000000000000902
 47
0.0000244140624993
 48
-44.0
 49
0.0000000000000071
140
-2.0
141
30.00000000000002
142
1.0
143
1.0
 70
  2804
 72
     0
 73
     1
 74
     4
  7
DVD 2005.ctb
 75
    16
147
1.0
 76
     0
 77
     2
 78
   300
148
1117.6
149
-0.0000000000001805
1001
ACAD_PSEXT
1000
HP DesignJet 500 42 by HP.pc3
1000
HP DesignJet 500 42 by HP
1000
\\bobxp2
1000

1070
     0
  0
PLOTSETTINGS
  5
DF
102
{ACAD_REACTORS
330
19
102
}
330
19
100
AcDbPlotSettings
  1
500 - 30x42 Portrait
  2
HP DesignJet 500 42 by HP.pc3
  4
User637
  6

 40
0.0
 41
0.0
 42
0.0
 43
0.0
 44
762.0
 45
1066.800048828125
 46
-0.0000000000000902
 47
0.0000244140626798
 48
-38.0
 49
34.00000000000002
140
-7.999999999999992
141
76.0
142
1.0
143
1.0
 70
  2804
 72
     0
 73
     0
 74
     4
  7
DVD 2005.ctb
 75
    16
147
1.0
 76
     0
 77
     2
 78
   300
148
965.1999999999999
149
-863.6000000000004
1001
ACAD_PSEXT
1000
HP DesignJet 500 42 by HP.pc3
1000
HP DesignJet 500 42 by HP
1000
\\bobxp2
1000

1070
     0
  0
PLOTSETTINGS
  5
1052
102
{ACAD_REACTORS
330
19
102
}
330
19
100
AcDbPlotSettings
  1
6200 8.5x11
  2
HP Officejet 6200 series (Copy 1)
  4
Letter
  6

 40
3.96875
 41
3.799404859542846
 42
3.968734741210937
 43
3.17498779296875
 44
215.8999938964844
 45
279.3999938964844
 46
0.0
 47
0.0
 48
0.0
 49
0.0
140
0.0
141
0.0
142
1.0
143
1.0
 70
 15024
 72
     0
 73
     1
 74
     5
  7
DVD 2005.ctb
 75
    16
147
1.0
 76
     0
 77
     2
 78
   300
148
0.0
149
0.0
1001
ACAD_PSEXT
1000
HP Officejet 6200 series (Copy 1)
1000
HP Officejet 6200 series
1000
USB002
1000

1070
     0
  0
PLOTSETTINGS
  5
E1
102
{ACAD_REACTORS
330
19
102
}
330
19
100
AcDbPlotSettings
  1
9800 - 11x17 Reduced
  2
HP Deskjet 9800 Series.pc3
  4
Tabloid
  6

 40
4.011083126068115
 41
15.65274238586425
 42
4.011077880859375
 43
3.17498779296875
 44
279.3999938964844
 45
431.7999877929687
 46
0.0
 47
2.952754139900229
 48
0.0
 49
0.0
140
36.0
141
24.0
142
1.0
143
2.246314643717012
 70
  2740
 72
     0
 73
     1
 74
     4
  7
DVD 2005.ctb
 75
     0
147
0.4451736103831314
 76
     0
 77
     2
 78
   300
148
0.0
149
0.0
1001
ACAD_PSEXT
1000
HP Deskjet 9800 Series.pc3
1000
HP Deskjet 9800 Series
1000
\\Server
1000

1070
     0
  0
PLOTSETTINGS
  5
E2
102
{ACAD_REACTORS
330
19
102
}
330
19
100
AcDbPlotSettings
  1
K550 - 8x11 Reduced
  2
HP Officejet Pro K550 Series.pc3
  4
Letter
  6

 40
4.095749855041503
 41
12.73173427581787
 42
4.095748901367187
 43
4.09576416015625
 44
215.8999938964844
 45
279.3999938964844
 46
16.3300824165344
 47
0.0
 48
0.0
 49
0.0
140
36.0
141
24.0
142
1.0
143
3.482466807486017
 70
  2804
 72
     0
 73
     1
 74
     4
  7
DVD 2005.ctb
 75
     0
147
0.2871527728133314
 76
     0
 77
     2
 78
   300
148
0.0
149
0.0
1001
ACAD_PSEXT
1000
HP Officejet Pro K550 Series.pc3
1000
HP Officejet Pro K550 Series
1000
Next to Jodi
1000

1070
     0
  0
ACDBPLACEHOLDER
  5
F
102
{ACAD_REACTORS
330
E
102
}
330
E
  0
DICTIONARY
  5
A15E6
330
A15E5
100
AcDbDictionary
280
     1
281
     1
  3
ADSK_XREC_MENTALRAYSETTINGSINFO
360
A15E7
  0
SCALE
  5
4D48B
102
{ACAD_REACTORS
330
A11
102
}
330
A11
100
AcDbScale
 70
     0
300
1" = 40'
140
1.0
141
40.0
290
     0
  0
SCALE
  5
4D48C
102
{ACAD_REACTORS
330
A11
102
}
330
A11
100
AcDbScale
 70
     0
300
1" = 1'
140
1.0
141
1.0
290
     0
  0
SCALE
  5
5C55A
102
{ACAD_REACTORS
330
A11
102
}
330
A11
100
AcDbScale
 70
     0
300
1" =10'_XREF
140
1.0
141
10.0
290
     0
  0
SCALE
  5
5C55B
102
{ACAD_REACTORS
330
A11
102
}
330
A11
100
AcDbScale
 70
     0
300
2" = 1'-0"_XREF
140
2.0
141
12.0
290
     0
  0
SCALE
  5
A12
102
{ACAD_REACTORS
330
A11
102
}
330
A11
100
AcDbScale
 70
     0
300
1:1
140
1.0
141
1.0
290
     0
  0
SCALE
  5
1DC91
102
{ACAD_REACTORS
330
A11
102
}
330
A11
100
AcDbScale
 70
     0
300
1:2
140
1.0
141
2.0
290
     0
  0
SCALE
  5
1DC92
102
{ACAD_REACTORS
330
A11
102
}
330
A11
100
AcDbScale
 70
     0
300
1:4
140
1.0
141
4.0
290
     0
  0
SCALE
  5
1DC93
102
{ACAD_REACTORS
330
A11
102
}
330
A11
100
AcDbScale
 70
     0
300
1:5
140
1.0
141
5.0
290
     0
  0
SCALE
  5
1DC94
102
{ACAD_REACTORS
330
A11
102
}
330
A11
100
AcDbScale
 70
     0
300
1:8
140
1.0
141
8.0
290
     0
  0
SCALE
  5
1DC95
102
{ACAD_REACTORS
330
A11
102
}
330
A11
100
AcDbScale
 70
     0
300
1:10
140
1.0
141
10.0
290
     0
  0
SCALE
  5
1DC96
102
{ACAD_REACTORS
330
A11
102
}
330
A11
100
AcDbScale
 70
     0
300
1:16
140
1.0
141
16.0
290
     0
  0
SCALE
  5
1DC97
102
{ACAD_REACTORS
330
A11
102
}
330
A11
100
AcDbScale
 70
     0
300
1:20
140
1.0
141
20.0
290
     0
  0
SCALE
  5
1DC98
102
{ACAD_REACTORS
330
A11
102
}
330
A11
100
AcDbScale
 70
     0
300
1:30
140
1.0
141
30.0
290
     0
  0
SCALE
  5
1DC99
102
{ACAD_REACTORS
330
A11
102
}
330
A11
100
AcDbScale
 70
     0
300
1:40
140
1.0
141
40.0
290
     0
  0
SCALE
  5
1DC9A
102
{ACAD_REACTORS
330
A11
102
}
330
A11
100
AcDbScale
 70
     0
300
1:50
140
1.0
141
50.0
290
     0
  0
SCALE
  5
1DC9B
102
{ACAD_REACTORS
330
A11
102
}
330
A11
100
AcDbScale
 70
     0
300
1:100
140
1.0
141
100.0
290
     0
  0
SCALE
  5
1DC9C
102
{ACAD_REACTORS
330
A11
102
}
330
A11
100
AcDbScale
 70
     0
300
2:1
140
2.0
141
1.0
290
     0
  0
SCALE
  5
1DC9D
102
{ACAD_REACTORS
330
A11
102
}
330
A11
100
AcDbScale
 70
     0
300
4:1
140
4.0
141
1.0
290
     0
  0
SCALE
  5
1DC9E
102
{ACAD_REACTORS
330
A11
102
}
330
A11
100
AcDbScale
 70
     0
300
8:1
140
8.0
141
1.0
290
     0
  0
SCALE
  5
1DC9F
102
{ACAD_REACTORS
330
A11
102
}
330
A11
100
AcDbScale
 70
     0
300
10:1
140
10.0
141
1.0
290
     0
  0
SCALE
  5
1DCA0
102
{ACAD_REACTORS
330
A11
102
}
330
A11
100
AcDbScale
 70
     0
300
100:1
140
100.0
141
1.0
290
     0
  0
SCALE
  5
1DCA1
102
{ACAD_REACTORS
330
A11
102
}
330
A11
100
AcDbScale
 70
     0
300
1/128" = 1'-0"
140
0.0078125
141
12.0
290
     0
  0
SCALE
  5
1DCA2
102
{ACAD_REACTORS
330
A11
102
}
330
A11
100
AcDbScale
 70
     0
300
1/64" = 1'-0"
140
0.015625
141
12.0
290
     0
  0
SCALE
  5
1DCA3
102
{ACAD_REACTORS
330
A11
102
}
330
A11
100
AcDbScale
 70
     0
300
1/32" = 1'-0"
140
0.03125
141
12.0
290
     0
  0
SCALE
  5
1DCA4
102
{ACAD_REACTORS
330
A11
102
}
330
A11
100
AcDbScale
 70
     0
300
1/16" = 1'-0"
140
0.0625
141
12.0
290
     0
  0
SCALE
  5
1DCA5
102
{ACAD_REACTORS
330
A11
102
}
330
A11
100
AcDbScale
 70
     0
300
3/32" = 1'-0"
140
0.09375
141
12.0
290
     0
  0
SCALE
  5
1DCA6
102
{ACAD_REACTORS
330
A11
102
}
330
A11
100
AcDbScale
 70
     0
300
1/8" = 1'-0"
140
0.125
141
12.0
290
     0
  0
SCALE
  5
1DCA7
102
{ACAD_REACTORS
330
A11
102
}
330
A11
100
AcDbScale
 70
     0
300
3/16" = 1'-0"
140
0.1875
141
12.0
290
     0
  0
SCALE
  5
1DCA8
102
{ACAD_REACTORS
330
A11
102
}
330
A11
100
AcDbScale
 70
     0
300
1/4" = 1'-0"
140
0.25
141
12.0
290
     0
  0
SCALE
  5
1DCA9
102
{ACAD_REACTORS
330
A11
102
}
330
A11
100
AcDbScale
 70
     0
300
3/8" = 1'-0"
140
0.375
141
12.0
290
     0
  0
SCALE
  5
1DCAA
102
{ACAD_REACTORS
330
A11
102
}
330
A11
100
AcDbScale
 70
     0
300
1/2" = 1'-0"
140
0.5
141
12.0
290
     0
  0
SCALE
  5
1DCAB
102
{ACAD_REACTORS
330
A11
102
}
330
A11
100
AcDbScale
 70
     0
300
3/4" = 1'-0"
140
0.75
141
12.0
290
     0
  0
SCALE
  5
1DCAC
102
{ACAD_REACTORS
330
A11
102
}
330
A11
100
AcDbScale
 70
     0
300
1" = 1'-0"
140
1.0
141
12.0
290
     0
  0
SCALE
  5
1DCAD
102
{ACAD_REACTORS
330
A11
102
}
330
A11
100
AcDbScale
 70
     0
300
1-1/2" = 1'-0"
140
1.5
141
12.0
290
     0
  0
SCALE
  5
1DCAE
102
{ACAD_REACTORS
330
A11
102
}
330
A11
100
AcDbScale
 70
     0
300
3" = 1'-0"
140
3.0
141
12.0
290
     0
  0
SCALE
  5
1DCAF
102
{ACAD_REACTORS
330
A11
102
}
330
A11
100
AcDbScale
 70
     0
300
6" = 1'-0"
140
6.0
141
12.0
290
     0
  0
SCALE
  5
1DCB0
102
{ACAD_REACTORS
330
A11
102
}
330
A11
100
AcDbScale
 70
     0
300
1'-0" = 1'-0"
140
12.0
141
12.0
290
     1
  0
ACDBSECTIONVIEWSTYLE
  5
5C43E
102
{ACAD_XDICTIONARY
360
A21DD
102
}
102
{ACAD_REACTORS
330
5C43D
102
}
330
5C43D
100
AcDbModelDocViewStyle
 70
     0
  3
Imperial24
290
     0
100
AcDbSectionViewStyle
 70
     0
 71
     0
 90
       78
 71
     1
340
11
 62
   256
 40
0.24
340
0
340
0
 62
   256
 40
0.24
300
I, O, Q, S, X, Z
 40
0.48
 90
        3
 40
0.18
 90
        1
 71
     2
340
16
 90
       25
 62
   256
340
16
 90
       50
 62
   256
 40
0.24
 40
0.0
 40
0.24
 71
     3
340
11
 62
   256
 40
0.24
 90
        1
 40
0.75
 90
        1
300
%<\AcVar ViewType \f "%tc1">% %<\AcVar ViewSectionStartId>%-%<\AcVar ViewSectionEndId>%\PSCALE %<\AcVar ViewScale \f "%sn">%
 71
     4
 62
   256
 62
   257
300
ANSI31
 40
1.0
 90
        0
290
     0
290
     0
 90
        6
 40
0.0
 40
1.570796326794896
 40
0.2617993877991494
 40
1.308996938995747
 40
-0.2617993877991494
 40
1.832595714594046
  0
TABLESTYLE
  5
87
102
{ACAD_XDICTIONARY
360
B4E
102
}
102
{ACAD_REACTORS
330
86
102
}
330
86
100
AcDbTableStyle
280
     0
  3
Standard
 70
     0
 71
     0
 40
0.06
 41
0.06
280
     0
281
     0
  7
Standard
140
0.18
170
     2
 62
     0
 63
     7
283
     0
 90
      512
 91
        0
  1

274
    -2
284
     1
 64
     0
275
    -2
285
     1
 65
     0
276
    -2
286
     1
 66
     0
277
    -2
287
     1
 67
     0
278
    -2
288
     1
 68
     0
279
    -2
289
     1
 69
     0
  7
Standard
140
0.25
170
     5
 62
     0
 63
     7
283
     0
 90
      512
 91
        0
  1

274
    -2
284
     1
 64
     0
275
    -2
285
     1
 65
     0
276
    -2
286
     1
 66
     0
277
    -2
287
     1
 67
     0
278
    -2
288
     1
 68
     0
279
    -2
289
     1
 69
     0
  7
Standard
140
0.18
170
     5
 62
     0
 63
     7
283
     0
 90
      512
 91
        0
  1

274
    -2
284
     1
 64
     0
275
    -2
285
     1
 65
     0
276
    -2
286
     1
 66
     0
277
    -2
287
     1
 67
     0
278
    -2
288
     1
 68
     0
279
    -2
289
     1
 69
     0
  0
VISUALSTYLE
  5
9F
102
{ACAD_REACTORS
330
99
102
}
330
99
100
AcDbVisualStyle
  2
2dWireframe
 70
     4
177
     3
291
     0
 70
    58
 90
        0
176
     1
 90
        2
176
     1
 90
        1
176
     1
 90
        0
176
     1
 40
0.6
176
     1
 40
30.0
176
     1
 62
     7
420
 16777215
176
     1
 90
        1
176
     1
 90
        4
176
     1
 62
     7
176
     1
 62
   257
176
     1
 90
        1
176
     1
 90
        1
176
     1
 40
1.0
176
     1
 90
        0
176
     1
 62
   257
176
     1
 40
1.0
176
     1
 90
        1
176
     1
 90
        6
176
     1
 90
        2
176
     1
 62
     7
176
     1
 90
        5
176
     1
 90
        0
176
     1
 90
        0
176
     1
290
     0
176
     1
 90
        1
176
     1
 40
0.0
176
     1
 90
        0
176
     1
290
     1
176
     1
290
     1
176
     1
290
     0
176
     1
290
     0
176
     1
290
     0
176
     1
290
     0
176
     1
290
     0
176
     1
290
     0
176
     1
290
     0
176
     1
 90
       50
176
     1
 40
0.0
176
     1
 40
1.0
176
     1
 90
        0
176
     1
 62
    18
420
        0
176
     1
 90
       50
176
     1
 90
        3
176
     1
 62
     5
420
      255
176
     1
290
     0
176
     1
 90
       50
176
     1
 90
       50
176
     1
 90
       50
176
     1
290
     0
176
     1
 90
       50
176
     1
 62
   256
176
     0
 40
1.0
176
     0
 90
        2
176
     1
  1
strokes_ogs.tif
176
     1
290
     0
176
     1
 40
1.0
176
     1
 40
1.0
176
     1
  0
VISUALSTYLE
  5
A1
102
{ACAD_REACTORS
330
99
102
}
330
99
100
AcDbVisualStyle
  2
3D Hidden
 70
     6
177
     3
291
     0
 70
    58
 90
        1
176
     1
 90
        2
176
     1
 90
        2
176
     1
 90
        0
176
     1
 40
0.6
176
     1
 40
30.0
176
     1
 62
     7
420
 16777215
176
     1
 90
        2
176
     1
 90
        2
176
     1
 62
     7
176
     1
 62
   257
176
     1
 90
        2
176
     1
 90
        1
176
     1
 40
40.0
176
     1
 90
        0
176
     1
 62
   257
176
     1
 40
1.0
176
     1
 90
        1
176
     1
 90
        6
176
     1
 90
        2
176
     1
 62
     7
176
     1
 90
        3
176
     1
 90
        0
176
     1
 90
        0
176
     1
290
     0
176
     1
 90
        1
176
     1
 40
0.0
176
     1
 90
        0
176
     1
290
     0
176
     1
290
     1
176
     1
290
     1
176
     1
290
     0
176
     1
290
     0
176
     1
290
     0
176
     1
290
     0
176
     1
290
     0
176
     1
290
     0
176
     1
 90
       50
176
     1
 40
0.0
176
     1
 40
1.0
176
     1
 90
        0
176
     1
 62
    18
420
        0
176
     1
 90
       50
176
     1
 90
        3
176
     1
 62
     5
420
      255
176
     1
290
     0
176
     1
 90
       50
176
     1
 90
       50
176
     1
 90
       50
176
     1
290
     0
176
     1
 90
       50
176
     1
 62
   256
176
     0
 40
1.0
176
     0
 90
        2
176
     1
  1
strokes_ogs.tif
176
     1
290
     0
176
     1
 40
1.0
176
     1
 40
1.0
176
     1
  0
VISUALSTYLE
  5
A0
102
{ACAD_REACTORS
330
99
102
}
330
99
100
AcDbVisualStyle
  2
3dWireframe
 70
     5
177
     3
291
     0
 70
    58
 90
        0
176
     1
 90
        2
176
     1
 90
        1
176
     1
 90
        0
176
     1
 40
0.6
176
     1
 40
30.0
176
     1
 62
     7
420
 16777215
176
     1
 90
        1
176
     1
 90
        4
176
     1
 62
     7
176
     1
 62
   257
176
     1
 90
        1
176
     1
 90
        1
176
     1
 40
1.0
176
     1
 90
        0
176
     1
 62
   257
176
     1
 40
1.0
176
     1
 90
        1
176
     1
 90
        6
176
     1
 90
        2
176
     1
 62
     7
176
     1
 90
        5
176
     1
 90
        0
176
     1
 90
        0
176
     1
290
     0
176
     1
 90
        1
176
     1
 40
0.0
176
     1
 90
        0
176
     1
290
     0
176
     1
290
     1
176
     1
290
     1
176
     1
290
     0
176
     1
290
     0
176
     1
290
     0
176
     1
290
     0
176
     1
290
     0
176
     1
290
     0
176
     1
 90
       50
176
     1
 40
0.0
176
     1
 40
1.0
176
     1
 90
        0
176
     1
 62
    18
420
        0
176
     1
 90
       50
176
     1
 90
        3
176
     1
 62
     5
420
      255
176
     1
290
     0
176
     1
 90
       50
176
     1
 90
       50
176
     1
 90
       50
176
     1
290
     0
176
     1
 90
       50
176
     1
 62
   256
176
     0
 40
1.0
176
     0
 90
        2
176
     1
  1
strokes_ogs.tif
176
     1
290
     0
176
     1
 40
1.0
176
     1
 40
1.0
176
     1
  0
VISUALSTYLE
  5
9E
102
{ACAD_REACTORS
330
99
102
}
330
99
100
AcDbVisualStyle
  2
Basic
 70
     7
177
     3
291
     1
 70
    58
 90
        1
176
     1
 90
        0
176
     1
 90
        1
176
     1
 90
        0
176
     1
 40
0.6
176
     1
 40
30.0
176
     1
 62
     7
420
 16777215
176
     1
 90
        0
176
     1
 90
        4
176
     1
 62
     7
176
     1
 62
   257
176
     1
 90
        1
176
     1
 90
        1
176
     1
 40
1.0
176
     1
 90
        8
176
     1
 62
     7
176
     1
 40
1.0
176
     1
 90
        1
176
     1
 90
        6
176
     1
 90
        2
176
     1
 62
     7
176
     1
 90
        5
176
     1
 90
        0
176
     1
 90
        0
176
     1
290
     0
176
     1
 90
        1
176
     1
 40
0.0
176
     1
 90
        0
176
     1
290
     0
176
     1
290
     1
176
     1
290
     1
176
     1
290
     0
176
     1
290
     0
176
     1
290
     0
176
     1
290
     0
176
     1
290
     0
176
     1
290
     0
176
     1
 90
       50
176
     1
 40
0.0
176
     1
 40
1.0
176
     1
 90
        0
176
     1
 62
    18
420
        0
176
     1
 90
       50
176
     1
 90
        3
176
     1
 62
     5
420
      255
176
     1
290
     0
176
     1
 90
       50
176
     1
 90
       50
176
     1
 90
       50
176
     1
290
     0
176
     1
 90
       50
176
     1
 62
   256
176
     0
 40
1.0
176
     0
 90
        2
176
     1
  1
strokes_ogs.tif
176
     1
290
     0
176
     1
 40
1.0
176
     1
 40
1.0
176
     1
  0
VISUALSTYLE
  5
A5
102
{ACAD_REACTORS
330
99
102
}
330
99
100
AcDbVisualStyle
  2
Brighten
 70
    12
177
     3
291
     1
 70
    58
 90
        2
176
     1
 90
        2
176
     1
 90
        1
176
     1
 90
        0
176
     1
 40
0.6
176
     1
 40
30.0
176
     1
 62
     7
420
 16777215
176
     1
 90
        1
176
     1
 90
        4
176
     1
 62
     7
176
     1
 62
   257
176
     1
 90
        1
176
     1
 90
        1
176
     1
 40
1.0
176
     1
 90
        8
176
     1
 62
     7
176
     1
 40
1.0
176
     1
 90
        1
176
     1
 90
        6
176
     1
 90
        2
176
     1
 62
     7
176
     1
 90
        5
176
     1
 90
        0
176
     1
 90
        0
176
     1
290
     0
176
     1
 90
        1
176
     1
 40
50.0
176
     1
 90
        0
176
     1
290
     0
176
     1
290
     1
176
     1
290
     1
176
     1
290
     0
176
     1
290
     0
176
     1
290
     0
176
     1
290
     0
176
     1
290
     0
176
     1
290
     0
176
     1
 90
       50
176
     1
 40
0.0
176
     1
 40
1.0
176
     1
 90
        0
176
     1
 62
    18
420
        0
176
     1
 90
       50
176
     1
 90
        3
176
     1
 62
     5
420
      255
176
     1
290
     0
176
     1
 90
       50
176
     1
 90
       50
176
     1
 90
       50
176
     1
290
     0
176
     1
 90
       50
176
     1
 62
   256
176
     0
 40
1.0
176
     0
 90
        2
176
     1
  1
strokes_ogs.tif
176
     1
290
     0
176
     1
 40
1.0
176
     1
 40
1.0
176
     1
  0
VISUALSTYLE
  5
A9
102
{ACAD_REACTORS
330
99
102
}
330
99
100
AcDbVisualStyle
  2
ColorChange
 70
    16
177
     3
291
     1
 70
    58
 90
        2
176
     1
 90
        2
176
     1
 90
        3
176
     1
 90
        0
176
     1
 40
0.6
176
     1
 40
30.0
176
     1
 62
     8
420
  8421504
176
     1
 90
        1
176
     1
 90
        4
176
     1
 62
     7
176
     1
 62
   257
176
     1
 90
        1
176
     1
 90
        1
176
     1
 40
1.0
176
     1
 90
        8
176
     1
 62
     8
420
  8421504
176
     1
 40
1.0
176
     1
 90
        1
176
     1
 90
        6
176
     1
 90
        2
176
     1
 62
     7
176
     1
 90
        5
176
     1
 90
        0
176
     1
 90
        0
176
     1
290
     0
176
     1
 90
        1
176
     1
 40
0.0
176
     1
 90
        0
176
     1
290
     0
176
     1
290
     1
176
     1
290
     1
176
     1
290
     0
176
     1
290
     0
176
     1
290
     0
176
     1
290
     0
176
     1
290
     0
176
     1
290
     0
176
     1
 90
       50
176
     1
 40
0.0
176
     1
 40
1.0
176
     1
 90
        0
176
     1
 62
    18
420
        0
176
     1
 90
       50
176
     1
 90
        3
176
     1
 62
     5
420
      255
176
     1
290
     0
176
     1
 90
       50
176
     1
 90
       50
176
     1
 90
       50
176
     1
290
     0
176
     1
 90
       50
176
     1
 62
   256
176
     0
 40
1.0
176
     0
 90
        2
176
     1
  1
strokes_ogs.tif
176
     1
290
     0
176
     1
 40
1.0
176
     1
 40
1.0
176
     1
  0
VISUALSTYLE
  5
A2
102
{ACAD_REACTORS
330
99
102
}
330
99
100
AcDbVisualStyle
  2
Conceptual
 70
     9
177
     3
291
     0
 70
    58
 90
        3
176
     1
 90
        2
176
     1
 90
        1
176
     1
 90
        0
176
     1
 40
0.6
176
     1
 40
30.0
176
     1
 62
     7
420
 16777215
176
     1
 90
        2
176
     1
 90
        2
176
     1
 62
     7
176
     1
 62
   257
176
     1
 90
        1
176
     1
 90
        1
176
     1
 40
40.0
176
     1
 90
        8
176
     1
 62
     7
176
     1
 40
1.0
176
     1
 90
        1
176
     1
 90
        6
176
     1
 90
        2
176
     1
 62
     7
176
     1
 90
        3
176
     1
 90
        0
176
     1
 90
        0
176
     1
290
     0
176
     1
 90
        1
176
     1
 40
0.0
176
     1
 90
        0
176
     1
290
     0
176
     1
290
     1
176
     1
290
     1
176
     1
290
     0
176
     1
290
     0
176
     1
290
     0
176
     1
290
     0
176
     1
290
     0
176
     1
290
     0
176
     1
 90
       50
176
     1
 40
0.0
176
     1
 40
1.0
176
     1
 90
        0
176
     1
 62
    18
420
        0
176
     1
 90
       50
176
     1
 90
        3
176
     1
 62
     5
420
      255
176
     1
290
     0
176
     1
 90
       50
176
     1
 90
       50
176
     1
 90
       50
176
     1
290
     0
176
     1
 90
       50
176
     1
 62
   256
176
     0
 40
1.0
176
     0
 90
        2
176
     1
  1
strokes_ogs.tif
176
     1
290
     0
176
     1
 40
1.0
176
     1
 40
1.0
176
     1
  0
VISUALSTYLE
  5
A4
102
{ACAD_REACTORS
330
99
102
}
330
99
100
AcDbVisualStyle
  2
Dim
 70
    11
177
     3
291
     1
 70
    58
 90
        2
176
     1
 90
        2
176
     1
 90
        1
176
     1
 90
        0
176
     1
 40
0.6
176
     1
 40
30.0
176
     1
 62
     7
420
 16777215
176
     1
 90
        1
176
     1
 90
        4
176
     1
 62
     7
176
     1
 62
   257
176
     1
 90
        1
176
     1
 90
        1
176
     1
 40
1.0
176
     1
 90
        8
176
     1
 62
     7
176
     1
 40
1.0
176
     1
 90
        1
176
     1
 90
        6
176
     1
 90
        2
176
     1
 62
     7
176
     1
 90
        5
176
     1
 90
        0
176
     1
 90
        0
176
     1
290
     0
176
     1
 90
        1
176
     1
 40
-50.0
176
     1
 90
        0
176
     1
290
     0
176
     1
290
     1
176
     1
290
     1
176
     1
290
     0
176
     1
290
     0
176
     1
290
     0
176
     1
290
     0
176
     1
290
     0
176
     1
290
     0
176
     1
 90
       50
176
     1
 40
0.0
176
     1
 40
1.0
176
     1
 90
        0
176
     1
 62
    18
420
        0
176
     1
 90
       50
176
     1
 90
        3
176
     1
 62
     5
420
      255
176
     1
290
     0
176
     1
 90
       50
176
     1
 90
       50
176
     1
 90
       50
176
     1
290
     0
176
     1
 90
       50
176
     1
 62
   256
176
     0
 40
1.0
176
     0
 90
        2
176
     1
  1
strokes_ogs.tif
176
     1
290
     0
176
     1
 40
1.0
176
     1
 40
1.0
176
     1
  0
VISUALSTYLE
  5
5C43C
102
{ACAD_REACTORS
330
99
102
}
330
99
100
AcDbVisualStyle
  2
EdgeColorOff
 70
    22
177
     3
291
     1
 70
    58
 90
        2
176
     0
 90
        2
176
     0
 90
        0
176
     0
 90
        0
176
     0
 40
0.6
176
     0
 40
30.0
176
     0
 62
     7
420
 16777215
176
     0
 90
        1
176
     0
 90
        4
176
     0
 62
     7
176
     0
 62
   257
176
     0
 90
        1
176
     0
 90
        1
176
     0
 40
1.0
176
     0
 90
        8
176
     2
 62
     7
176
     0
 40
1.0
176
     0
 90
        1
176
     0
 90
        6
176
     0
 90
        2
176
     0
 62
     7
176
     0
 90
        5
176
     0
 90
        0
176
     0
 90
        0
176
     0
290
     0
176
     0
 90
        1
176
     0
 40
0.0
176
     0
 90
        0
176
     0
290
     0
176
     0
290
     1
176
     0
290
     1
176
     0
290
     0
176
     0
290
     0
176
     0
290
     0
176
     0
290
     0
176
     0
290
     0
176
     0
290
     0
176
     0
 90
       50
176
     0
 40
0.0
176
     0
 40
1.0
176
     0
 90
        0
176
     0
 62
    18
420
        0
176
     0
 90
       50
176
     0
 90
        3
176
     0
 62
     5
420
      255
176
     0
290
     0
176
     0
 90
       50
176
     0
 90
       50
176
     0
 90
       50
176
     0
290
     0
176
     0
 90
       50
176
     0
 62
   256
176
     0
 40
1.0
176
     0
 90
        2
176
     0
  1
strokes_ogs.tif
176
     0
290
     0
176
     0
 40
1.0
176
     0
 40
1.0
176
     0
  0
VISUALSTYLE
  5
A8
102
{ACAD_REACTORS
330
99
102
}
330
99
100
AcDbVisualStyle
  2
Facepattern
 70
    15
177
     3
291
     1
 70
    58
 90
        2
176
     1
 90
        2
176
     1
 90
        1
176
     1
 90
        0
176
     1
 40
0.6
176
     1
 40
30.0
176
     1
 62
     7
420
 16777215
176
     1
 90
        1
176
     1
 90
        4
176
     1
 62
     7
176
     1
 62
   257
176
     1
 90
        1
176
     1
 90
        1
176
     1
 40
1.0
176
     1
 90
        8
176
     1
 62
     7
176
     1
 40
1.0
176
     1
 90
        1
176
     1
 90
        6
176
     1
 90
        2
176
     1
 62
     7
176
     1
 90
        5
176
     1
 90
        0
176
     1
 90
        0
176
     1
290
     0
176
     1
 90
        1
176
     1
 40
0.0
176
     1
 90
        0
176
     1
290
     0
176
     1
290
     1
176
     1
290
     1
176
     1
290
     0
176
     1
290
     0
176
     1
290
     0
176
     1
290
     0
176
     1
290
     0
176
     1
290
     0
176
     1
 90
       50
176
     1
 40
0.0
176
     1
 40
1.0
176
     1
 90
        0
176
     1
 62
    18
420
        0
176
     1
 90
       50
176
     1
 90
        3
176
     1
 62
     5
420
      255
176
     1
290
     0
176
     1
 90
       50
176
     1
 90
       50
176
     1
 90
       50
176
     1
290
     0
176
     1
 90
       50
176
     1
 62
   256
176
     0
 40
1.0
176
     0
 90
        2
176
     1
  1
strokes_ogs.tif
176
     1
290
     0
176
     1
 40
1.0
176
     1
 40
1.0
176
     1
  0
VISUALSTYLE
  5
9A
102
{ACAD_REACTORS
330
99
102
}
330
99
100
AcDbVisualStyle
  2
Flat
 70
     0
177
     3
291
     1
 70
    58
 90
        2
176
     1
 90
        1
176
     1
 90
        1
176
     1
 90
        2
176
     1
 40
0.6
176
     1
 40
30.0
176
     1
 62
     7
420
 16777215
176
     1
 90
        0
176
     1
 90
        4
176
     1
 62
     7
176
     1
 62
   257
176
     1
 90
        1
176
     1
 90
        1
176
     1
 40
1.0
176
     1
 90
        8
176
     1
 62
     7
176
     1
 40
1.0
176
     1
 90
        1
176
     1
 90
        6
176
     1
 90
        2
176
     1
 62
     7
176
     1
 90
        5
176
     1
 90
        0
176
     1
 90
        0
176
     1
290
     0
176
     1
 90
        1
176
     1
 40
0.0
176
     1
 90
        0
176
     1
290
     0
176
     1
290
     1
176
     1
290
     1
176
     1
290
     0
176
     1
290
     0
176
     1
290
     0
176
     1
290
     0
176
     1
290
     0
176
     1
290
     0
176
     1
 90
       50
176
     1
 40
0.0
176
     1
 40
1.0
176
     1
 90
        0
176
     1
 62
    18
420
        0
176
     1
 90
       50
176
     1
 90
        3
176
     1
 62
     5
420
      255
176
     1
290
     0
176
     1
 90
       50
176
     1
 90
       50
176
     1
 90
       50
176
     1
290
     0
176
     1
 90
       50
176
     1
 62
   256
176
     0
 40
1.0
176
     0
 90
        2
176
     1
  1
strokes_ogs.tif
176
     1
290
     0
176
     1
 40
1.0
176
     1
 40
1.0
176
     1
  0
VISUALSTYLE
  5
9B
102
{ACAD_REACTORS
330
99
102
}
330
99
100
AcDbVisualStyle
  2
FlatWithEdges
 70
     1
177
     3
291
     1
 70
    58
 90
        2
176
     1
 90
        1
176
     1
 90
        1
176
     1
 90
        2
176
     1
 40
0.6
176
     1
 40
30.0
176
     1
 62
     7
420
 16777215
176
     1
 90
        1
176
     1
 90
        4
176
     1
 62
     7
176
     1
 62
   257
176
     1
 90
        1
176
     1
 90
        1
176
     1
 40
1.0
176
     1
 90
        0
176
     1
 62
   257
176
     1
 40
1.0
176
     1
 90
        1
176
     1
 90
        6
176
     1
 90
        2
176
     1
 62
     7
176
     1
 90
        5
176
     1
 90
        0
176
     1
 90
        0
176
     1
290
     0
176
     1
 90
        1
176
     1
 40
0.0
176
     1
 90
        0
176
     1
290
     0
176
     1
290
     1
176
     1
290
     1
176
     1
290
     0
176
     1
290
     0
176
     1
290
     0
176
     1
290
     0
176
     1
290
     0
176
     1
290
     0
176
     1
 90
       50
176
     1
 40
0.0
176
     1
 40
1.0
176
     1
 90
        0
176
     1
 62
    18
420
        0
176
     1
 90
       50
176
     1
 90
        3
176
     1
 62
     5
420
      255
176
     1
290
     0
176
     1
 90
       50
176
     1
 90
       50
176
     1
 90
       50
176
     1
290
     0
176
     1
 90
       50
176
     1
 62
   256
176
     0
 40
1.0
176
     0
 90
        2
176
     1
  1
strokes_ogs.tif
176
     1
290
     0
176
     1
 40
1.0
176
     1
 40
1.0
176
     1
  0
VISUALSTYLE
  5
9C
102
{ACAD_REACTORS
330
99
102
}
330
99
100
AcDbVisualStyle
  2
Gouraud
 70
     2
177
     3
291
     1
 70
    58
 90
        2
176
     1
 90
        2
176
     1
 90
        1
176
     1
 90
        2
176
     1
 40
0.6
176
     1
 40
30.0
176
     1
 62
     7
420
 16777215
176
     1
 90
        0
176
     1
 90
        4
176
     1
 62
     7
176
     1
 62
   257
176
     1
 90
        1
176
     1
 90
        1
176
     1
 40
1.0
176
     1
 90
        0
176
     1
 62
     7
176
     1
 40
1.0
176
     1
 90
        1
176
     1
 90
        6
176
     1
 90
        2
176
     1
 62
     7
176
     1
 90
        5
176
     1
 90
        0
176
     1
 90
        0
176
     1
290
     0
176
     1
 90
        1
176
     1
 40
0.0
176
     1
 90
        0
176
     1
290
     0
176
     1
290
     1
176
     1
290
     1
176
     1
290
     0
176
     1
290
     0
176
     1
290
     0
176
     1
290
     0
176
     1
290
     0
176
     1
290
     0
176
     1
 90
       50
176
     1
 40
0.0
176
     1
 40
1.0
176
     1
 90
        0
176
     1
 62
    18
420
        0
176
     1
 90
       50
176
     1
 90
        3
176
     1
 62
     5
420
      255
176
     1
290
     0
176
     1
 90
       50
176
     1
 90
       50
176
     1
 90
       50
176
     1
290
     0
176
     1
 90
       50
176
     1
 62
   256
176
     0
 40
1.0
176
     0
 90
        2
176
     1
  1
strokes_ogs.tif
176
     1
290
     0
176
     1
 40
1.0
176
     1
 40
1.0
176
     1
  0
VISUALSTYLE
  5
9D
102
{ACAD_REACTORS
330
99
102
}
330
99
100
AcDbVisualStyle
  2
GouraudWithEdges
 70
     3
177
     3
291
     1
 70
    58
 90
        2
176
     1
 90
        2
176
     1
 90
        1
176
     1
 90
        2
176
     1
 40
0.6
176
     1
 40
30.0
176
     1
 62
     7
420
 16777215
176
     1
 90
        1
176
     1
 90
        4
176
     1
 62
     7
176
     1
 62
   257
176
     1
 90
        1
176
     1
 90
        1
176
     1
 40
1.0
176
     1
 90
        0
176
     1
 62
   257
176
     1
 40
1.0
176
     1
 90
        1
176
     1
 90
        6
176
     1
 90
        2
176
     1
 62
     7
176
     1
 90
        5
176
     1
 90
        0
176
     1
 90
        0
176
     1
290
     0
176
     1
 90
        1
176
     1
 40
0.0
176
     1
 90
        0
176
     1
290
     0
176
     1
290
     1
176
     1
290
     1
176
     1
290
     0
176
     1
290
     0
176
     1
290
     0
176
     1
290
     0
176
     1
290
     0
176
     1
290
     0
176
     1
 90
       50
176
     1
 40
0.0
176
     1
 40
1.0
176
     1
 90
        0
176
     1
 62
    18
420
        0
176
     1
 90
       50
176
     1
 90
        3
176
     1
 62
     5
420
      255
176
     1
290
     0
176
     1
 90
       50
176
     1
 90
       50
176
     1
 90
       50
176
     1
290
     0
176
     1
 90
       50
176
     1
 62
   256
176
     0
 40
1.0
176
     0
 90
        2
176
     1
  1
strokes_ogs.tif
176
     1
290
     0
176
     1
 40
1.0
176
     1
 40
1.0
176
     1
  0
VISUALSTYLE
  5
5C434
102
{ACAD_REACTORS
330
99
102
}
330
99
100
AcDbVisualStyle
  2
Hidden
 70
     6
177
     3
291
     0
 70
    58
 90
        1
176
     1
 90
        2
176
     1
 90
        2
176
     1
 90
        0
176
     1
 40
0.6
176
     1
 40
30.0
176
     1
 62
     7
420
 16777215
176
     1
 90
        2
176
     1
 90
        2
176
     1
 62
     7
176
     1
 62
   257
176
     1
 90
        2
176
     1
 90
        1
176
     1
 40
40.0
176
     1
 90
        0
176
     1
 62
   257
176
     1
 40
1.0
176
     1
 90
        1
176
     1
 90
        6
176
     1
 90
        2
176
     1
 62
     7
176
     1
 90
        3
176
     1
 90
        0
176
     1
 90
        0
176
     1
290
     0
176
     1
 90
        1
176
     1
 40
0.0
176
     1
 90
        0
176
     1
290
     0
176
     1
290
     1
176
     1
290
     1
176
     1
290
     0
176
     1
290
     0
176
     1
290
     0
176
     1
290
     0
176
     1
290
     0
176
     1
290
     0
176
     1
 90
       50
176
     1
 40
0.0
176
     1
 40
1.0
176
     1
 90
        0
176
     1
 62
    18
420
        0
176
     1
 90
       50
176
     1
 90
        3
176
     1
 62
     5
420
      255
176
     1
290
     0
176
     1
 90
       50
176
     1
 90
       50
176
     1
 90
       50
176
     1
290
     0
176
     1
 90
       50
176
     1
 62
   256
176
     0
 40
1.0
176
     0
 90
        2
176
     1
  1
strokes_ogs.tif
176
     1
290
     0
176
     1
 40
1.0
176
     1
 40
1.0
176
     1
  0
VISUALSTYLE
  5
5C43A
102
{ACAD_REACTORS
330
99
102
}
330
99
100
AcDbVisualStyle
  2
JitterOff
 70
    20
177
     3
291
     1
 70
    58
 90
        2
176
     0
 90
        2
176
     0
 90
        0
176
     0
 90
        0
176
     0
 40
0.6
176
     0
 40
30.0
176
     0
 62
     7
420
 16777215
176
     0
 90
        1
176
     0
 90
        4
176
     0
 62
     7
176
     0
 62
   257
176
     0
 90
        1
176
     0
 90
        1
176
     0
 40
1.0
176
     0
 90
       10
176
     2
 62
     7
176
     0
 40
1.0
176
     0
 90
        1
176
     0
 90
        6
176
     0
 90
        2
176
     0
 62
     7
176
     0
 90
        5
176
     0
 90
        0
176
     0
 90
        0
176
     0
290
     0
176
     0
 90
        1
176
     0
 40
0.0
176
     0
 90
        0
176
     0
290
     0
176
     0
290
     1
176
     0
290
     1
176
     0
290
     0
176
     0
290
     0
176
     0
290
     0
176
     0
290
     0
176
     0
290
     0
176
     0
290
     0
176
     0
 90
       50
176
     0
 40
0.0
176
     0
 40
1.0
176
     0
 90
        0
176
     0
 62
    18
420
        0
176
     0
 90
       50
176
     0
 90
        3
176
     0
 62
     5
420
      255
176
     0
290
     0
176
     0
 90
       50
176
     0
 90
       50
176
     0
 90
       50
176
     0
290
     0
176
     0
 90
       50
176
     0
 62
   256
176
     0
 40
1.0
176
     0
 90
        2
176
     0
  1
strokes_ogs.tif
176
     0
290
     0
176
     0
 40
1.0
176
     0
 40
1.0
176
     0
  0
VISUALSTYLE
  5
A7
102
{ACAD_REACTORS
330
99
102
}
330
99
100
AcDbVisualStyle
  2
Linepattern
 70
    14
177
     3
291
     1
 70
    58
 90
        2
176
     1
 90
        2
176
     1
 90
        1
176
     1
 90
        0
176
     1
 40
0.6
176
     1
 40
30.0
176
     1
 62
     7
420
 16777215
176
     1
 90
        1
176
     1
 90
        4
176
     1
 62
     7
176
     1
 62
   257
176
     1
 90
        7
176
     1
 90
        7
176
     1
 40
1.0
176
     1
 90
        8
176
     1
 62
     7
176
     1
 40
1.0
176
     1
 90
        1
176
     1
 90
        6
176
     1
 90
        2
176
     1
 62
     7
176
     1
 90
        5
176
     1
 90
        0
176
     1
 90
        0
176
     1
290
     0
176
     1
 90
        1
176
     1
 40
0.0
176
     1
 90
        0
176
     1
290
     0
176
     1
290
     1
176
     1
290
     1
176
     1
290
     0
176
     1
290
     0
176
     1
290
     0
176
     1
290
     0
176
     1
290
     0
176
     1
290
     0
176
     1
 90
       50
176
     1
 40
0.0
176
     1
 40
1.0
176
     1
 90
        0
176
     1
 62
    18
420
        0
176
     1
 90
       50
176
     1
 90
        3
176
     1
 62
     5
420
      255
176
     1
290
     0
176
     1
 90
       50
176
     1
 90
       50
176
     1
 90
       50
176
     1
290
     0
176
     1
 90
       50
176
     1
 62
   256
176
     0
 40
1.0
176
     0
 90
        2
176
     1
  1
strokes_ogs.tif
176
     1
290
     0
176
     1
 40
1.0
176
     1
 40
1.0
176
     1
  0
VISUALSTYLE
  5
5C43B
102
{ACAD_REACTORS
330
99
102
}
330
99
100
AcDbVisualStyle
  2
OverhangOff
 70
    21
177
     3
291
     1
 70
    58
 90
        2
176
     0
 90
        2
176
     0
 90
        0
176
     0
 90
        0
176
     0
 40
0.6
176
     0
 40
30.0
176
     0
 62
     7
420
 16777215
176
     0
 90
        1
176
     0
 90
        4
176
     0
 62
     7
176
     0
 62
   257
176
     0
 90
        1
176
     0
 90
        1
176
     0
 40
1.0
176
     0
 90
        9
176
     2
 62
     7
176
     0
 40
1.0
176
     0
 90
        1
176
     0
 90
        6
176
     0
 90
        2
176
     0
 62
     7
176
     0
 90
        5
176
     0
 90
        0
176
     0
 90
        0
176
     0
290
     0
176
     0
 90
        1
176
     0
 40
0.0
176
     0
 90
        0
176
     0
290
     0
176
     0
290
     1
176
     0
290
     1
176
     0
290
     0
176
     0
290
     0
176
     0
290
     0
176
     0
290
     0
176
     0
290
     0
176
     0
290
     0
176
     0
 90
       50
176
     0
 40
0.0
176
     0
 40
1.0
176
     0
 90
        0
176
     0
 62
    18
420
        0
176
     0
 90
       50
176
     0
 90
        3
176
     0
 62
     5
420
      255
176
     0
290
     0
176
     0
 90
       50
176
     0
 90
       50
176
     0
 90
       50
176
     0
290
     0
176
     0
 90
       50
176
     0
 62
   256
176
     0
 40
1.0
176
     0
 90
        2
176
     0
  1
strokes_ogs.tif
176
     0
290
     0
176
     0
 40
1.0
176
     0
 40
1.0
176
     0
  0
VISUALSTYLE
  5
A3
102
{ACAD_REACTORS
330
99
102
}
330
99
100
AcDbVisualStyle
  2
Realistic
 70
     8
177
     3
291
     0
 70
    58
 90
        2
176
     1
 90
        2
176
     1
 90
        1
176
     1
 90
        0
176
     1
 40
0.6
176
     1
 40
30.0
176
     1
 62
     7
420
 16777215
176
     1
 90
        1
176
     1
 90
        0
176
     1
 62
     7
176
     1
 62
   257
176
     1
 90
        1
176
     1
 90
        1
176
     1
 40
1.0
176
     1
 90
        8
176
     1
 62
     8
420
  7895160
176
     1
 40
1.0
176
     1
 90
        1
176
     1
 90
        6
176
     1
 90
        2
176
     1
 62
     7
176
     1
 90
        5
176
     1
 90
        0
176
     1
 90
        0
176
     1
290
     0
176
     1
 90
       13
176
     1
 40
0.0
176
     1
 90
        0
176
     1
290
     0
176
     1
290
     1
176
     1
290
     1
176
     1
290
     0
176
     1
290
     0
176
     1
290
     0
176
     1
290
     0
176
     1
290
     0
176
     1
290
     0
176
     1
 90
       50
176
     1
 40
0.0
176
     1
 40
1.0
176
     1
 90
        0
176
     1
 62
    18
420
        0
176
     1
 90
       50
176
     1
 90
        3
176
     1
 62
     5
420
      255
176
     1
290
     0
176
     1
 90
       50
176
     1
 90
       50
176
     1
 90
       50
176
     1
290
     0
176
     1
 90
       50
176
     1
 62
   256
176
     0
 40
1.0
176
     0
 90
        2
176
     1
  1
strokes_ogs.tif
176
     1
290
     0
176
     1
 40
1.0
176
     1
 40
1.0
176
     1
  0
VISUALSTYLE
  5
5C439
102
{ACAD_REACTORS
330
99
102
}
330
99
100
AcDbVisualStyle
  2
Shaded
 70
    27
177
     3
291
     0
 70
    58
 90
        2
176
     1
 90
        2
176
     1
 90
        1
176
     1
 90
        2
176
     1
 40
0.6
176
     1
 40
30.0
176
     1
 62
     7
420
 16777215
176
     1
 90
        0
176
     1
 90
        4
176
     1
 62
     7
176
     1
 62
   257
176
     1
 90
        1
176
     1
 90
        1
176
     1
 40
1.0
176
     1
 90
        8
176
     1
 62
   257
176
     1
 40
1.0
176
     1
 90
        1
176
     1
 90
        6
176
     1
 90
        2
176
     1
 62
     8
420
  7895160
176
     1
 90
        3
176
     1
 90
        0
176
     1
 90
        0
176
     1
290
     0
176
     1
 90
        5
176
     1
 40
0.0
176
     1
 90
        0
176
     1
290
     0
176
     1
290
     1
176
     1
290
     1
176
     1
290
     0
176
     1
290
     0
176
     1
290
     0
176
     1
290
     0
176
     1
290
     0
176
     1
290
     0
176
     1
 90
       50
176
     1
 40
0.0
176
     1
 40
1.0
176
     1
 90
        0
176
     1
 62
    18
420
        0
176
     1
 90
       50
176
     1
 90
        3
176
     1
 62
     5
420
      255
176
     1
290
     0
176
     1
 90
       50
176
     1
 90
       50
176
     1
 90
       50
176
     1
290
     0
176
     1
 90
       50
176
     1
 62
   256
176
     0
 40
1.0
176
     0
 90
        2
176
     1
  1
strokes_ogs.tif
176
     1
290
     0
176
     1
 40
1.0
176
     1
 40
1.0
176
     1
  0
VISUALSTYLE
  5
5C438
102
{ACAD_REACTORS
330
99
102
}
330
99
100
AcDbVisualStyle
  2
Shaded with edges
 70
    26
177
     3
291
     0
 70
    58
 90
        2
176
     1
 90
        2
176
     1
 90
        1
176
     1
 90
        2
176
     1
 40
0.6
176
     1
 40
30.0
176
     1
 62
     7
420
 16777215
176
     1
 90
        1
176
     1
 90
       10
176
     1
 62
     7
176
     1
 62
   257
176
     1
 90
        2
176
     1
 90
        1
176
     1
 40
1.0
176
     1
 90
        8
176
     1
 62
   257
176
     1
 40
1.0
176
     1
 90
        1
176
     1
 90
        6
176
     1
 90
        2
176
     1
 62
     7
176
     1
 90
        3
176
     1
 90
        0
176
     1
 90
        0
176
     1
290
     0
176
     1
 90
        5
176
     1
 40
0.0
176
     1
 90
        0
176
     1
290
     0
176
     1
290
     1
176
     1
290
     1
176
     1
290
     0
176
     1
290
     0
176
     1
290
     0
176
     1
290
     0
176
     1
290
     0
176
     1
290
     0
176
     1
 90
       50
176
     1
 40
0.0
176
     1
 40
1.0
176
     1
 90
        0
176
     1
 62
    18
420
        0
176
     1
 90
       50
176
     1
 90
        3
176
     1
 62
     5
420
      255
176
     1
290
     0
176
     1
 90
       50
176
     1
 90
       50
176
     1
 90
       50
176
     1
290
     0
176
     1
 90
       50
176
     1
 62
   256
176
     0
 40
1.0
176
     0
 90
        2
176
     1
  1
strokes_ogs.tif
176
     1
290
     0
176
     1
 40
1.0
176
     1
 40
1.0
176
     1
  0
VISUALSTYLE
  5
5C435
102
{ACAD_REACTORS
330
99
102
}
330
99
100
AcDbVisualStyle
  2
Shades of Gray
 70
    23
177
     3
291
     0
 70
    58
 90
        2
176
     1
 90
        2
176
     1
 90
        3
176
     1
 90
        0
176
     1
 40
0.6
176
     1
 40
30.0
176
     1
 62
     7
420
 16777215
176
     1
 90
        2
176
     1
 90
        2
176
     1
 62
     7
176
     1
 62
     7
176
     1
 90
        1
176
     1
 90
        1
176
     1
 40
40.0
176
     1
 90
        8
176
     1
 62
     7
176
     1
 40
1.0
176
     1
 90
        1
176
     1
 90
        6
176
     1
 90
        2
176
     1
 62
     7
176
     1
 90
        3
176
     1
 90
        0
176
     1
 90
        0
176
     1
290
     0
176
     1
 90
        1
176
     1
 40
0.0
176
     1
 90
        0
176
     1
290
     0
176
     1
290
     1
176
     1
290
     1
176
     1
290
     0
176
     1
290
     0
176
     1
290
     0
176
     1
290
     0
176
     1
290
     0
176
     1
290
     0
176
     1
 90
       50
176
     1
 40
0.0
176
     1
 40
1.0
176
     1
 90
        0
176
     1
 62
    18
420
        0
176
     1
 90
       50
176
     1
 90
        3
176
     1
 62
     5
420
      255
176
     1
290
     0
176
     1
 90
       50
176
     1
 90
       50
176
     1
 90
       50
176
     1
290
     0
176
     1
 90
       50
176
     1
 62
   256
176
     0
 40
1.0
176
     0
 90
        2
176
     1
  1
strokes_ogs.tif
176
     1
290
     0
176
     1
 40
1.0
176
     1
 40
1.0
176
     1
  0
VISUALSTYLE
  5
5C436
102
{ACAD_REACTORS
330
99
102
}
330
99
100
AcDbVisualStyle
  2
Sketchy
 70
    24
177
     3
291
     0
 70
    58
 90
        1
176
     1
 90
        2
176
     1
 90
        2
176
     1
 90
        0
176
     1
 40
0.6
176
     1
 40
30.0
176
     1
 62
     7
420
 16777215
176
     1
 90
        2
176
     1
 90
        2
176
     1
 62
     7
176
     1
 62
     7
176
     1
 90
        1
176
     1
 90
        1
176
     1
 40
40.0
176
     1
 90
       11
176
     1
 62
     7
176
     1
 40
1.0
176
     1
 90
        1
176
     1
 90
        6
176
     1
 90
        2
176
     1
 62
     7
176
     1
 90
        6
176
     1
 90
        0
176
     1
 90
        0
176
     1
290
     0
176
     1
 90
        1
176
     1
 40
0.0
176
     1
 90
        0
176
     1
290
     0
176
     1
290
     1
176
     1
290
     1
176
     1
290
     0
176
     1
290
     0
176
     1
290
     0
176
     1
290
     0
176
     1
290
     0
176
     1
290
     0
176
     1
 90
       50
176
     1
 40
0.0
176
     1
 40
1.0
176
     1
 90
        0
176
     1
 62
    18
420
        0
176
     1
 90
       50
176
     1
 90
        3
176
     1
 62
     5
420
      255
176
     1
290
     0
176
     1
 90
       50
176
     1
 90
       50
176
     1
 90
       50
176
     1
290
     0
176
     1
 90
       50
176
     1
 62
   256
176
     0
 40
1.0
176
     0
 90
        2
176
     1
  1
strokes_ogs.tif
176
     1
290
     0
176
     1
 40
1.0
176
     1
 40
1.0
176
     1
  0
VISUALSTYLE
  5
A6
102
{ACAD_REACTORS
330
99
102
}
330
99
100
AcDbVisualStyle
  2
Thicken
 70
    13
177
     3
291
     1
 70
    58
 90
        2
176
     1
 90
        2
176
     1
 90
        1
176
     1
 90
        0
176
     1
 40
0.6
176
     1
 40
30.0
176
     1
 62
     7
420
 16777215
176
     1
 90
        1
176
     1
 90
        4
176
     1
 62
     7
176
     1
 62
   257
176
     1
 90
        1
176
     1
 90
        1
176
     1
 40
1.0
176
     1
 90
       12
176
     1
 62
     7
176
     1
 40
1.0
176
     1
 90
        1
176
     1
 90
        6
176
     1
 90
        2
176
     1
 62
     7
176
     1
 90
        5
176
     1
 90
        0
176
     1
 90
        0
176
     1
290
     0
176
     1
 90
        1
176
     1
 40
0.0
176
     1
 90
        0
176
     1
290
     0
176
     1
290
     1
176
     1
290
     1
176
     1
290
     0
176
     1
290
     0
176
     1
290
     0
176
     1
290
     0
176
     1
290
     0
176
     1
290
     0
176
     1
 90
       50
176
     1
 40
0.0
176
     1
 40
1.0
176
     1
 90
        0
176
     1
 62
    18
420
        0
176
     1
 90
       50
176
     1
 90
        3
176
     1
 62
     5
420
      255
176
     1
290
     0
176
     1
 90
       50
176
     1
 90
       50
176
     1
 90
       50
176
     1
290
     0
176
     1
 90
       50
176
     1
 62
   256
176
     0
 40
1.0
176
     0
 90
        2
176
     1
  1
strokes_ogs.tif
176
     1
290
     0
176
     1
 40
1.0
176
     1
 40
1.0
176
     1
  0
VISUALSTYLE
  5
5C433
102
{ACAD_REACTORS
330
99
102
}
330
99
100
AcDbVisualStyle
  2
Wireframe
 70
     5
177
     3
291
     0
 70
    58
 90
        0
176
     1
 90
        2
176
     1
 90
        0
176
     1
 90
        0
176
     1
 40
0.6
176
     1
 40
30.0
176
     1
 62
     7
420
 16777215
176
     1
 90
        1
176
     1
 90
        4
176
     1
 62
     7
176
     1
 62
   257
176
     1
 90
        1
176
     1
 90
        1
176
     1
 40
1.0
176
     1
 90
        0
176
     1
 62
   257
176
     1
 40
1.0
176
     1
 90
        1
176
     1
 90
        6
176
     1
 90
        2
176
     1
 62
     7
176
     1
 90
        3
176
     1
 90
        0
176
     1
 90
        0
176
     1
290
     0
176
     1
 90
        1
176
     1
 40
0.0
176
     1
 90
        0
176
     1
290
     0
176
     1
290
     1
176
     1
290
     1
176
     1
290
     0
176
     1
290
     0
176
     1
290
     0
176
     1
290
     0
176
     1
290
     0
176
     1
290
     0
176
     1
 90
       50
176
     1
 40
0.0
176
     1
 40
1.0
176
     1
 90
        0
176
     1
 62
    18
420
        0
176
     1
 90
       50
176
     1
 90
        3
176
     1
 62
     5
420
      255
176
     1
290
     0
176
     1
 90
       50
176
     1
 90
       50
176
     1
 90
       50
176
     1
290
     0
176
     1
 90
       50
176
     1
 62
   256
176
     0
 40
1.0
176
     0
 90
        2
176
     1
  1
strokes_ogs.tif
176
     1
290
     0
176
     1
 40
1.0
176
     1
 40
1.0
176
     1
  0
VISUALSTYLE
  5
5C437
102
{ACAD_REACTORS
330
99
102
}
330
99
100
AcDbVisualStyle
  2
X-Ray
 70
    25
177
     3
291
     0
 70
    58
 90
        2
176
     1
 90
        2
176
     1
 90
        1
176
     1
 90
        1
176
     1
 40
0.5
176
     1
 40
30.0
176
     1
 62
     7
420
 16777215
176
     1
 90
        1
176
     1
 90
        0
176
     1
 62
     7
176
     1
 62
   257
176
     1
 90
        1
176
     1
 90
        1
176
     1
 40
1.0
176
     1
 90
        8
176
     1
 62
     7
176
     1
 40
1.0
176
     1
 90
        1
176
     1
 90
        6
176
     1
 90
        2
176
     1
 62
     7
176
     1
 90
        3
176
     1
 90
        0
176
     1
 90
        0
176
     1
290
     0
176
     1
 90
       13
176
     1
 40
0.0
176
     1
 90
        0
176
     1
290
     0
176
     1
290
     1
176
     1
290
     1
176
     1
290
     0
176
     1
290
     0
176
     1
290
     0
176
     1
290
     0
176
     1
290
     0
176
     1
290
     0
176
     1
 90
       50
176
     1
 40
0.0
176
     1
 40
1.0
176
     1
 90
        0
176
     1
 62
    18
420
        0
176
     1
 90
       50
176
     1
 90
        3
176
     1
 62
     5
420
      255
176
     1
290
     0
176
     1
 90
       50
176
     1
 90
       50
176
     1
 90
       50
176
     1
290
     0
176
     1
 90
       50
176
     1
 62
   256
176
     0
 40
1.0
176
     0
 90
        2
176
     1
  1
strokes_ogs.tif
176
     1
290
     0
176
     1
 40
1.0
176
     1
 40
1.0
176
     1
  0
DICTIONARY
  5
5C6BF
102
{ACAD_REACTORS
330
5C6BE
102
}
330
5C6BE
100
AcDbDictionary
280
     1
281
     1
  3
DefaultStandard
360
9C879
  3
Standards
360
5C6C0
  0
DICTIONARYVAR
  5
B5D
102
{ACAD_REACTORS
330
66
102
}
330
66
100
DictionaryVariables
280
     0
  1
1:1
  0
DICTIONARYVAR
  5
B5C
102
{ACAD_REACTORS
330
66
102
}
330
66
100
DictionaryVariables
280
     0
  1
STANDARD
  0
DICTIONARYVAR
  5
89
102
{ACAD_REACTORS
330
66
102
}
330
66
100
DictionaryVariables
280
     0
  1
STANDARD
  0
DICTIONARYVAR
  5
66F55
102
{ACAD_REACTORS
330
66
102
}
330
66
100
DictionaryVariables
280
     0
  1
Imperial24
  0
DICTIONARYVAR
  5
66F56
102
{ACAD_REACTORS
330
66
102
}
330
66
100
DictionaryVariables
280
     0
  1
Imperial24
  0
DICTIONARYVAR
  5
67
102
{ACAD_REACTORS
330
66
102
}
330
66
100
DictionaryVariables
280
     0
  1
2
  0
DICTIONARYVAR
  5
6B
102
{ACAD_REACTORS
330
66
102
}
330
66
100
DictionaryVariables
280
     0
  1
1
  0
DICTIONARYVAR
  5
9D9A7
102
{ACAD_REACTORS
330
66
102
}
330
66
100
DictionaryVariables
280
     0
  1
BYLAYER
  0
DICTIONARYVAR
  5
9D9A6
102
{ACAD_REACTORS
330
66
102
}
330
66
100
DictionaryVariables
280
     0
  1
ByLayer
  0
DICTIONARYVAR
  5
25751
102
{ACAD_REACTORS
330
66
102
}
330
66
100
DictionaryVariables
280
     0
  1
1
  0
DICTIONARYVAR
  5
25752
102
{ACAD_REACTORS
330
66
102
}
330
66
100
DictionaryVariables
280
     0
  1
15
  0
DICTIONARYVAR
  5
F79
102
{ACAD_REACTORS
330
66
102
}
330
66
100
DictionaryVariables
280
     0
  1
0
  0
DICTIONARYVAR
  5
F78
102
{ACAD_REACTORS
330
66
102
}
330
66
100
DictionaryVariables
280
     0
  1
0
  0
DICTIONARY
  5
A21DF
330
5C440
100
AcDbDictionary
280
     1
281
     1
  3
ACAD_XREC_ROUNDTRIP
360
AE7AA
  0
DICTIONARY
  5
66EB6
330
22
100
AcDbDictionary
280
     1
281
     1
  0
XRECORD
  5
A15E7
102
{ACAD_REACTORS
330
A15E6
102
}
330
A15E6
100
AcDbXrecord
280
     1
 70
     2
 71
     3
 72
     0
  0
DICTIONARY
  5
A21DD
330
5C43E
100
AcDbDictionary
280
     1
281
     1
  3
ACAD_XREC_ROUNDTRIP
360
AE7A9
  0
DICTIONARY
  5
B4E
330
87
100
AcDbDictionary
280
     1
281
     1
  3
ACAD_ROUNDTRIP_2008_TABLESTYLE_CELLSTYLEMAP
360
AE7A8
  0
XRECORD
  5
9C879
102
{ACAD_REACTORS
330
5C6BF
102
}
330
5C6BF
100
AcDbXrecord
280
     1
1000
AIA Version 3
  0
BINRECORD
  5
5C6C0
102
{ACAD_REACTORS
330
5C6BF
102
}
330
5C6BF
100
AcAecBinRecord
 90
        0
 91
    19403
 70
     0
310
0100FFFEFF0D4100490041002000560065007200730069006F006E00200033000500FFFF01001C004163416563556B4C6179657244657363726970746976654669656C64FFFEFF154400690073006300690070006C0069006E0065002000440065007300690067006E00610074006F0072000102000000007B333637354541
310
46100100002100000070BA406CD0EA76040B00FFFEFF001500FFFEFF01520002000000FFFEFF085200650073006F0075007200630065000700FFFEFF01410002000000FFFEFF165200650073006F00750072006300650020004100720063006800690074006500630074007500720061006C00000000000000FFFEFF014D00
310
02000000FFFEFF135200650073006F00750072006300650020004D0065006300680061006E006900630061006C00000000000000FFFEFF014B0002000000FFFEFF175200650073006F007500720063006500200028005500730065007200200044006500660069006E00650064002900000000000000FFFEFF014A00020000
310
00FFFEFF175200650073006F007500720063006500200028005500730065007200200044006500660069006E00650064002900000000000000FFFEFF01450002000000FFFEFF135200650073006F007500720063006500200045006C0065006300740072006900630061006C00000000000000FFFEFF01430002000000FFFE
310
FF0E5200650073006F007500720063006500200043006900760069006C00000000000000FFFEFF01530002000000FFFEFF135200650073006F00750072006300650020005300740072007500630074007500720061006C0000000000000000000000FFFEFF01410002000000FFFEFF0D410072006300680069007400650063
310
0074007500720061006C000A00FFFEFF01500002000000FFFEFF144100720063006800690074006500630074007500720061006C00200050006100760069006E006700000000000000FFFEFF014B0002000000FFFEFF1C4100720063006800690074006500630074007500720061006C002000280055007300650072002000
310
44006500660069006E00650064002900000000000000FFFEFF014A0002000000FFFEFF1C4100720063006800690074006500630074007500720061006C00200028005500730065007200200044006500660069006E00650064002900000000000000FFFEFF01490002000000FFFEFF16410072006300680069007400650063
310
0074007500720061006C00200049006E0074006500720069006F007200000000000000FFFEFF01470002000000FFFEFF164100720063006800690074006500630074007500720061006C00200047007200610070006800690063007300000000000000FFFEFF01460002000000FFFEFF164100720063006800690074006500
310
630074007500720061006C002000460069006E0069007300680065007300000000000000FFFEFF01450002000000FFFEFF164100720063006800690074006500630074007500720061006C00200045006C0065006D0065006E0074007300000000000000FFFEFF01440002000000FFFEFF1841007200630068006900740065
310
00630074007500720061006C002000440065006D006F006C006900740069006F006E00000000000000FFFEFF01540002000000FFFEFF1C4100720063006800690074006500630074007500720061006C0020005400720061006E00730070006F00720074006100740069006F006E00000000000000FFFEFF01530002000000
310
FFFEFF124100720063006800690074006500630074007500720061006C002000530069007400650000000000000001000000FFFEFF01510002000000FFFEFF09450071007500690070006D0065006E0074001100FFFEFF01410002000000FFFEFF124100740068006C0065007400690063002000450071007500690070006D
310
0065006E007400000000000000FFFEFF01520002000000FFFEFF10520065007400610069006C002000450071007500690070006D0065006E007400000000000000FFFEFF01500002000000FFFEFF155000610072006B0069006E00670020004C006F0074002000450071007500690070006D0065006E007400000000000000
310
FFFEFF014D0002000000FFFEFF154D00610069006E00740065006E0061006E00630065002000450071007500690070006D0065006E007400000000000000FFFEFF014C0002000000FFFEFF144C00610062006F007200610074006F00720079002000450071007500690070006D0065006E007400000000000000FFFEFF014B
310
0002000000FFFEFF18450071007500690070006D0065006E007400200028005500730065007200200044006500660069006E00650064002900000000000000FFFEFF014A0002000000FFFEFF18450071007500690070006D0065006E007400200028005500730065007200200044006500660069006E006500640029000000
310
00000000FFFEFF01480002000000FFFEFF1248006F00730070006900740061006C002000450071007500690070006D0065006E007400000000000000FFFEFF01590002000000FFFEFF12530065006300750072006900740079002000450071007500690070006D0065006E007400000000000000FFFEFF01460002000000FF
310
FEFF1646006F006F006400200053006500720076006900630065002000450071007500690070006D0065006E007400000000000000FFFEFF01450002000000FFFEFF1545006400750063006100740069006F006E0061006C002000450071007500690070006D0065006E007400000000000000FFFEFF01560002000000FFFE
310
FF1C56006900640065006F002F00500068006F0074006F0067007200610070006800690063002000450071007500690070006D0065006E007400000000000000FFFEFF01440002000000FFFEFF1344006500740065006E00740069006F006E002000450071007500690070006D0065006E007400000000000000FFFEFF0143
310
0002000000FFFEFF16440072007900200043006C00650061006E0069006E0067002000450071007500690070006D0065006E007400000000000000FFFEFF01540002000000FFFEFF145400680065006100740072006900630061006C002000450071007500690070006D0065006E007400000000000000FFFEFF0142000200
310
0000FFFEFF0E420061006E006B002000450071007500690070006D0065006E007400000000000000FFFEFF01530002000000FFFEFF0E53006900740065002000450071007500690070006D0065006E00740000000000000000000000FFFEFF01500002000000FFFEFF0850006C0075006D00620069006E0067000600FFFEFF
310
01510002000000FFFEFF1250006C0075006D00620069006E0067002000450071007500690070006D0065006E007400000000000000FFFEFF01500002000000FFFEFF0F50006C0075006D00620069006E006700200050006900700069006E006700000000000000FFFEFF014B0002000000FFFEFF1750006C0075006D006200
310
69006E006700200028005500730065007200200044006500660069006E00650064002900000000000000FFFEFF014A0002000000FFFEFF1750006C0075006D00620069006E006700200028005500730065007200200044006500660069006E00650064002900000000000000FFFEFF01440002000000FFFEFF1350006C0075
310
006D00620069006E0067002000440065006D006F006C006900740069006F006E00000000000000FFFEFF01530002000000FFFEFF0D50006C0075006D00620069006E0067002000530069007400650000000000000000000000FFFEFF014F0002000000FFFEFF0A4F007000650072006100740069006F006E0073000200FFFE
310
FF014B0002000000FFFEFF194F007000650072006100740069006F006E007300200028005500730065007200200044006500660069006E00650064002900000000000000FFFEFF014A0002000000FFFEFF194F007000650072006100740069006F006E007300200028005500730065007200200044006500660069006E0065
310
006400290000000000000000000000FFFEFF014D0002000000FFFEFF0A4D0065006300680061006E006900630061006C000700FFFEFF01500002000000FFFEFF114D0065006300680061006E006900630061006C00200050006900700069006E006700000000000000FFFEFF014B0002000000FFFEFF194D00650063006800
310
61006E006900630061006C00200028005500730065007200200044006500660069006E00650064002900000000000000FFFEFF014A0002000000FFFEFF194D0065006300680061006E006900630061006C00200028005500730065007200200044006500660069006E00650064002900000000000000FFFEFF014900020000
310
00FFFEFF1A4D0065006300680061006E006900630061006C00200049006E0073007400720075006D0065006E0074006100740069006F006E00000000000000FFFEFF01480002000000FFFEFF0F4D0065006300680061006E006900630061006C0020004800560041004300000000000000FFFEFF01440002000000FFFEFF15
310
4D0065006300680061006E006900630061006C002000440065006D006F006C006900740069006F006E00000000000000FFFEFF01530002000000FFFEFF0F4D0065006300680061006E006900630061006C002000530069007400650000000000000000000000FFFEFF014C0002000000FFFEFF094C0061006E006400730063
310
006100700065000500FFFEFF01500002000000FFFEFF124C0061006E00640073006300610070006500200050006C0061006E00740069006E006700000000000000FFFEFF014B0002000000FFFEFF184C0061006E00640073006300610070006500200028005500730065007200200044006500660069006E00650064002900
310
000000000000FFFEFF014A0002000000FFFEFF184C0061006E00640073006300610070006500200028005500730065007200200044006500660069006E00650064002900000000000000FFFEFF01490002000000FFFEFF144C0061006E006400730063006100700065002000490072007200690067006100740069006F006E
310
00000000000000FFFEFF01440002000000FFFEFF144C0061006E006400730063006100700065002000440065006D006F006C006900740069006F006E0000000000000000000000FFFEFF015A0002000000FFFEFF1A43006F006E00740072006100630074006F00720020002F002000530068006F0070002000440072006100
310
770069006E00670073000200FFFEFF014B0002000000FFFEFF2943006F006E00740072006100630074006F00720020002F002000530068006F0070002000440072006100770069006E0067007300200028005500730065007200200044006500660069006E00650064002900000000000000FFFEFF014A0002000000FFFEFF
310
2943006F006E00740072006100630074006F00720020002F002000530068006F0070002000440072006100770069006E0067007300200028005500730065007200200044006500660069006E0065006400290000000000000000000000FFFEFF01490002000000FFFEFF0949006E0074006500720069006F00720073000600
310
FFFEFF014E0002000000FFFEFF0F49006E0074006500720069006F0072002000440065007300690067006E00000000000000FFFEFF014B0002000000FFFEFF1849006E0074006500720069006F0072007300200028005500730065007200200044006500660069006E00650064002900000000000000FFFEFF014A00020000
310
00FFFEFF1849006E0074006500720069006F0072007300200028005500730065007200200044006500660069006E00650064002900000000000000FFFEFF01470002000000FFFEFF1249006E0074006500720069006F0072007300200047007200610070006800690063007300000000000000FFFEFF01460002000000FFFE
310
FF1149006E0074006500720069006F0072002000460069006E0069007300680065007300000000000000FFFEFF01440002000000FFFEFF1349006E0074006500720069006F0072002000440065006D006F006C006900740069006F006E0000000000000000000000FFFEFF01480002000000FFFEFF13480061007A00610072
310
0064006F007500730020004D006100740065007200690061006C0073000700FFFEFF01410002000000FFFEFF084100730062006500730074006F007300000000000000FFFEFF01520002000000FFFEFF0C5200650066007200690067006500720061006E0074007300000000000000FFFEFF01500002000000FFFEFF035000
310
43004200000000000000FFFEFF014C0002000000FFFEFF044C00650061006400000000000000FFFEFF014B0002000000FFFEFF22480061007A006100720064006F007500730020004D006100740065007200690061006C007300200028005500730065007200200044006500660069006E00650064002900000000000000FF
310
FEFF014A0002000000FFFEFF22480061007A006100720064006F007500730020004D006100740065007200690061006C007300200028005500730065007200200044006500660069006E00650064002900000000000000FFFEFF01430002000000FFFEFF094300680065006D006900630061006C0073000000000000000000
310
0000FFFEFF01580002000000FFFEFF114F00740068006500720020004400690073006300690070006C0069006E00650073000200FFFEFF014B0002000000FFFEFF204F00740068006500720020004400690073006300690070006C0069006E0065007300200028005500730065007200200044006500660069006E00650064
310
002900000000000000FFFEFF014A0002000000FFFEFF204F00740068006500720020004400690073006300690070006C0069006E0065007300200028005500730065007200200044006500660069006E0065006400290000000000000000000000FFFEFF01470002000000FFFEFF07470065006E006500720061006C000500
310
FFFEFF01520002000000FFFEFF10470065006E006500720061006C0020005200650073006F007500720063006500000000000000FFFEFF014B0002000000FFFEFF16470065006E006500720061006C00200028005500730065007200200044006500660069006E00650064002900000000000000FFFEFF014A0002000000FF
310
FEFF16470065006E006500720061006C00200028005500730065007200200044006500660069006E00650064002900000000000000FFFEFF01490002000000FFFEFF13470065006E006500720061006C00200049006E0066006F0072006D006100740069006F006E00000000000000FFFEFF01430002000000FFFEFF134700
310
65006E006500720061006C00200043006F006E0074007200610063007400750061006C0000000000000000000000FFFEFF01460002000000FFFEFF0F46006900720065002000500072006F00740065006300740069006F006E000400FFFEFF01410002000000FFFEFF18460069007200650020004400650074006500630074
310
0069006F006E00200061006E006400200041006C00610072006D00000000000000FFFEFF014B0002000000FFFEFF134600690072006500200028005500730065007200200044006500660069006E00650064002900000000000000FFFEFF014A0002000000FFFEFF1346006900720065002000280055007300650072002000
310
44006500660069006E00650064002900000000000000FFFEFF01530002000000FFFEFF10460069007200650020005300750070007000720065007300730069006F006E0000000000000000000000FFFEFF01570002000000FFFEFF0B43006900760069006C00200057006F0072006B0073000200FFFEFF014B0002000000FF
310
FEFF1A43006900760069006C00200057006F0072006B007300200028005500730065007200200044006500660069006E00650064002900000000000000FFFEFF014A0002000000FFFEFF1A43006900760069006C00200057006F0072006B007300200028005500730065007200200044006500660069006E00650064002900
310
00000000000000000000FFFEFF01450002000000FFFEFF0A45006C0065006300740072006900630061006C000900FFFEFF01500002000000FFFEFF1045006C0065006300740072006900630061006C00200050006F00770065007200000000000000FFFEFF014C0002000000FFFEFF1345006C006500630074007200690063
310
0061006C0020004C00690067006800740069006E006700000000000000FFFEFF014B0002000000FFFEFF1945006C0065006300740072006900630061006C00200028005500730065007200200044006500660069006E00650064002900000000000000FFFEFF014A0002000000FFFEFF1945006C0065006300740072006900
310
630061006C00200028005500730065007200200044006500660069006E00650064002900000000000000FFFEFF01490002000000FFFEFF1A45006C0065006300740072006900630061006C00200049006E0073007400720075006D0065006E0074006100740069006F006E00000000000000FFFEFF01590002000000FFFEFF
310
1C45006C0065006300740072006900630061006C00200041007500780069006C0069006100720079002000530079007300740065006D007300000000000000FFFEFF01440002000000FFFEFF1545006C0065006300740072006900630061006C002000440065006D006F006C006900740069006F006E00000000000000FFFE
310
FF01540002000000FFFEFF1D45006C0065006300740072006900630061006C002000540065006C00650063006F006D006D0075006E00690063006100740069006F006E007300000000000000FFFEFF01530002000000FFFEFF0F45006C0065006300740072006900630061006C002000530069007400650000000000000000
310
000000FFFEFF01560002000000FFFEFF1053007500720076006500790020002F0020004D0061007000700069006E0067000500FFFEFF01410002000000FFFEFF0D410065007200690061006C002000530075007200760065007900000000000000FFFEFF014B0002000000FFFEFF1F53007500720076006500790020002F00
310
20004D0061007000700069006E006700200028005500730065007200200044006500660069006E00650064002900000000000000FFFEFF014A0002000000FFFEFF1F53007500720076006500790020002F0020004D0061007000700069006E006700200028005500730065007200200044006500660069006E006500640029
310
00000000000000FFFEFF01490002000000FFFEFF0E4400690067006900740061006C002000530075007200760065007900000000000000FFFEFF01460002000000FFFEFF0C4600690065006C006400200053007500720076006500790000000000000000000000FFFEFF01440002000000FFFEFF07500072006F0063006500
310
730073000E00FFFEFF01410002000000FFFEFF0C500072006F00630065007300730020004100690072007300000000000000FFFEFF01520002000000FFFEFF19500072006F006300650073007300200044007200610069006E0073002000260020005200650063006C00610069006D007300000000000000FFFEFF01510002
310
000000FFFEFF11500072006F0063006500730073002000450071007500690070006D0065006E007400000000000000FFFEFF01500002000000FFFEFF0E500072006F006300650073007300200050006900700069006E006700000000000000FFFEFF014F0002000000FFFEFF0B500072006F00630065007300730020004F00
310
69006C00000000000000FFFEFF01470002000000FFFEFF0D500072006F006300650073007300200047006100730065007300000000000000FFFEFF01580002000000FFFEFF0F500072006F00630065007300730020004500780068006100750073007400000000000000FFFEFF01570002000000FFFEFF0E500072006F0063
310
006500730073002000570061007400650072007300000000000000FFFEFF01450002000000FFFEFF12500072006F006300650073007300200045006C0065006300740072006900630061006C00000000000000FFFEFF01560002000000FFFEFF0E500072006F0063006500730073002000560061006300750075006D000000
310
00000000FFFEFF01440002000000FFFEFF12500072006F0063006500730073002000440065006D006F006C006900740069006F006E00000000000000FFFEFF01430002000000FFFEFF11500072006F00630065007300730020004300680065006D006900630061006C007300000000000000FFFEFF01540002000000FFFEFF
310
18500072006F006300650073007300200045006E0074007200610069006E0065006400200053006F006C00690064007300000000000000FFFEFF01530002000000FFFEFF0C500072006F0063006500730073002000530069007400650000000000000000000000FFFEFF01540002000000FFFEFF12540065006C0065006300
310
6F006D006D0075006E00690063006100740069006F006E0073000900FFFEFF01410002000000FFFEFF0E41007500640069006F0020002F002000560069007300750061006C00000000000000FFFEFF014E0002000000FFFEFF0D440061007400610020004E006500740077006F0072006B007300000000000000FFFEFF014D
310
0002000000FFFEFF0A4D006F006E00690074006F00720069006E006700000000000000FFFEFF014B0002000000FFFEFF21540065006C00650063006F006D006D0075006E00690063006100740069006F006E007300200028005500730065007200200044006500660069006E00650064002900000000000000FFFEFF014A00
310
02000000FFFEFF21540065006C00650063006F006D006D0075006E00690063006100740069006F006E007300200028005500730065007200200044006500660069006E00650064002900000000000000FFFEFF01490002000000FFFEFF0849006E0074006500720063006F006D00000000000000FFFEFF01590002000000FF
310
FEFF0853006500630075007200690074007900000000000000FFFEFF01430002000000FFFEFF1143006C006F0063006B00200061006E0064002000500072006F006700720061006D00000000000000FFFEFF01540002000000FFFEFF09540065006C006500700068006F006E00650000000000000000000000FFFEFF014300
310
02000000FFFEFF0543006900760069006C000900FFFEFF01500002000000FFFEFF0C43006900760069006C00200050006100760069006E006700000000000000FFFEFF014B0002000000FFFEFF1443006900760069006C00200028005500730065007200200044006500660069006E00650064002900000000000000FFFEFF
310
014A0002000000FFFEFF1443006900760069006C00200028005500730065007200200044006500660069006E00650064002900000000000000FFFEFF01490002000000FFFEFF1243006900760069006C00200049006D00700072006F00760065006D0065006E0074007300000000000000FFFEFF01470002000000FFFEFF0D
310
43006900760069006C002000470072006100640069006E006700000000000000FFFEFF01550002000000FFFEFF0F43006900760069006C0020005500740069006C0069007400690065007300000000000000FFFEFF01440002000000FFFEFF1043006900760069006C002000440065006D006F006C006900740069006F006E
310
00000000000000FFFEFF01540002000000FFFEFF1443006900760069006C0020005400720061006E00730070006F00720074006100740069006F006E00000000000000FFFEFF01530002000000FFFEFF0A43006900760069006C002000530069007400650000000000000000000000FFFEFF01530002000000FFFEFF0A5300
310
740072007500630074007500720061006C000600FFFEFF014B0002000000FFFEFF195300740072007500630074007500720061006C00200028005500730065007200200044006500660069006E00650064002900000000000000FFFEFF014A0002000000FFFEFF195300740072007500630074007500720061006C00200028
310
005500730065007200200044006500660069006E00650064002900000000000000FFFEFF01460002000000FFFEFF125300740072007500630074007500720061006C0020004600720061006D0069006E006700000000000000FFFEFF01440002000000FFFEFF155300740072007500630074007500720061006C0020004400
310
65006D006F006C006900740069006F006E00000000000000FFFEFF01420002000000FFFEFF175300740072007500630074007500720061006C002000530075006200730074007200750063007400750072006500000000000000FFFEFF01530002000000FFFEFF0F5300740072007500630074007500720061006C00200053
310
0069007400650000000000000000000000FFFEFF01420002000000FFFEFF0C470065006F0074006500630068006E006900630061006C000200FFFEFF014B0002000000FFFEFF1B470065006F0074006500630068006E006900630061006C00200028005500730065007200200044006500660069006E006500640029000000
310
00000000FFFEFF014A0002000000FFFEFF1B470065006F0074006500630068006E006900630061006C00200028005500730065007200200044006500660069006E00650064002900000000000000000000000180FFFEFF054D0061006A006F0072000300000000000000000000000000000000000000000000000000000000
310
000000FFFEFF002300FFFEFF052D004400650074006C0002000000FFFEFF06440065007400610069006C00000000000000FFFEFF052D0043006C006E00670002000000FFFEFF074300650069006C0069006E006700000000000000FFFEFF052D0052006F006F00660002000000FFFEFF0452006F006F006600000000000000
310
FFFEFF052D00470072006900640002000000FFFEFF0A470072006900640020006C0069006E0065007300000000000000FFFEFF052D00460069007200650002000000FFFEFF1446006900720065002000700072006F00740065006300740069006F006E00200070006C0061006E00000000000000FFFEFF052D00500072006F
310
00740002000000FFFEFF1646006900720065002000700072006F00740065006300740069006F006E002000730079007300740065006D00000000000000FFFEFF052D0043006F006C00730002000000FFFEFF0743006F006C0075006D006E007300000000000000FFFEFF052D004300740072006C0002000000FFFEFF0E4300
310
6F006E00740072006F006C00200050006F0069006E0074007300000000000000FFFEFF052D004500710070006D0002000000FFFEFF09450071007500690070006D0065006E007400000000000000FFFEFF052D00570061006C006C0002000000FFFEFF05570061006C006C007300000000000000FFFEFF052D00500072006F
310
00700002000000FFFEFF08500072006F0070006500720074007900000000000000FFFEFF052D00530065006300740002000000FFFEFF07530065006300740069006F006E00000000000000FFFEFF052D0050006F006C00790002000000FFFEFF0850006F006C00790067006F006E007300000000000000FFFEFF052D004C00
310
69007400650002000000FFFEFF114C00690067006800740069006E006700200066006900780074007500720065007300000000000000FFFEFF052D00410063006300730002000000FFFEFF0B410063006300650073007300200070006C0061006E00000000000000FFFEFF052D00480056004100430002000000FFFEFF0448
310
00560041004300000000000000FFFEFF052D0045006C006500630002000000FFFEFF0A45006C0065006300740072006900630061006C00000000000000FFFEFF052D0054006F0070006F0002000000FFFEFF0A54006F0070006F00670072006100700068007900000000000000FFFEFF052D0043006F006400650002000000
310
FFFEFF1443006F0064006500200063006F006D0070006C00690061006E0063006500200070006C0061006E00000000000000FFFEFF052D0047006C0061007A0002000000FFFEFF0747006C0061007A0069006E006700000000000000FFFEFF052D00540069006E006E0002000000FFFEFF1E54007200690061006E00670075
310
006C00610074006500640020006900720072006500670075006C006100720020006E006500740077006F0072006B00000000000000FFFEFF052D0050006C0061006E0002000000FFFEFF154B0065007900200070006C0061006E002000280066006C006F006F007200200070006C0061006E002900000000000000FFFEFF05
310
2D0046006C006F00720002000000FFFEFF0546006C006F006F007200000000000000FFFEFF052D004600750072006E0002000000FFFEFF0B4600750072006E0069007300680069006E0067007300000000000000FFFEFF052D004200650061006D0002000000FFFEFF054200650061006D007300000000000000FFFEFF052D
310
0044006F006F00720002000000FFFEFF0544006F006F0072007300000000000000FFFEFF052D0041006E006E006F0002000000FFFEFF0A41006E006E006F0074006100740069006F006E00000000000000FFFEFF052D00450076006100630002000000FFFEFF0F450076006100630075006100740069006F006E0020007000
310
6C0061006E00000000000000FFFEFF052D00530069007400650002000000FFFEFF095300690074006500200070006C0061006E00000000000000FFFEFF052D0043006F006E00760002000000FFFEFF1143006F006E0076006500790069006E0067002000730079007300740065006D007300000000000000FFFEFF052D0053
310
006C006100620002000000FFFEFF0553006C00610062007300000000000000FFFEFF052D0043006F006D006D0002000000FFFEFF12540065006C00650063006F006D006D0075006E00690063006100740069006F006E007300000000000000FFFEFF052D005300740072006D0002000000FFFEFF0844007200610069006E00
310
610067006500000000000000FFFEFF052D00410072006500610002000000FFFEFF044100720065006100000000000000FFFEFF052D0045006C006500760002000000FFFEFF0945006C00650076006100740069006F006E000000000000000180FFFEFF074D0069006E006F00720020003100040000000000000000F00E7704
310
00000000000000000000000000000000F00000FFFEFF006A00FFFEFF052D004F00700065006E0002000000FFFEFF084F00700065006E0069006E0067007300000000000000FFFEFF052D005300690067006E0002000000FFFEFF055300690067006E007300000000000000FFFEFF052D0043006C006E00670002000000FFFE
310
FF074300650069006C0069006E006700000000000000FFFEFF052D00570069006400650002000000FFFEFF19570069006400650020007700650069006700680074002000670072006100700068006900630020006C0069006E0065007300000000000000FFFEFF052D00530044004600460002000000FFFEFF105300750070
310
0070006C0079002000640069006600660075007300650072007300000000000000FFFEFF052D004D0063007500740002000000FFFEFF164D00610069006E00200063007500740020006C0069006E006500200065006C0065006D0065006E0074007300000000000000FFFEFF052D00470072006900640002000000FFFEFF04
310
4700720069006400000000000000FFFEFF052D00460069007200650002000000FFFEFF0A46006900720065002000770061006C006C007300000000000000FFFEFF052D00410062006F00760002000000FFFEFF0E45006C0065006D0065006E00740073002000610062006F0076006500000000000000FFFEFF052D00500072
310
006F00660002000000FFFEFF08500072006F00660069006C0065007300000000000000FFFEFF052D00530079006D00620002000000FFFEFF07530079006D0062006F006C007300000000000000FFFEFF052D00480065007600790002000000FFFEFF1A48006500610076007900200077006500690067006800740020006700
310
72006100700068006900630020006C0069006E0065007300000000000000FFFEFF052D00430061007600690002000000FFFEFF06430061007600690074007900000000000000FFFEFF052D005500740069006C0002000000FFFEFF095500740069006C0069007400690065007300000000000000FFFEFF052D004E006F0074
310
00650002000000FFFEFF054E006F00740065007300000000000000FFFEFF052D00530065006100740002000000FFFEFF07530065006100740069006E006700000000000000FFFEFF052D00460072006500650002000000FFFEFF0C46007200650065007300740061006E00640069006E006700000000000000FFFEFF052D00
310
460061007300630002000000FFFEFF074600610073006300690061007300000000000000FFFEFF052D00500072006800740002000000FFFEFF0E5000610072007400690061006C002000680065006900670068007400000000000000FFFEFF052D004D00610072006B0002000000FFFEFF1D4D00610072006B006500720073
310
002C00200062007200650061006B0020006D00610072006B0073002C0020006C00650061006400650072007300000000000000FFFEFF052D00530070006300650002000000FFFEFF0553007000610063006500000000000000FFFEFF052D004900640065006E0002000000FFFEFF134900640065006E007400690066006900
310
63006100740069006F006E0020005400610067007300000000000000FFFEFF052D0057006B007300660002000000FFFEFF1E530079007300740065006D00200077006F0072006B0020007300750072006600610063006500200063006F006D0070006F006E0065006E0074007300000000000000FFFEFF052D005200610069
310
00730002000000FFFEFF06520061006900730065006400000000000000FFFEFF052D004A0061006D00620002000000FFFEFF1544006F006F007200200061006E0064002000770069006E0064006F00770020006A0061006D0062007300000000000000FFFEFF052D00450076007400720002000000FFFEFF1B45006C006500
310
7600610074006F00720020006300610072007300200061006E0064002000650071007500690070006D0065006E007400000000000000FFFEFF052D00540065007800740002000000FFFEFF045400650078007400000000000000FFFEFF052D004500710070006D0002000000FFFEFF09450071007500690070006D0065006E
310
007400000000000000FFFEFF052D00570061006C006C0002000000FFFEFF05570061006C006C007300000000000000FFFEFF052D00460069006C00650002000000FFFEFF0D460069006C006500200063006100620069006E00650074007300000000000000FFFEFF052D004100730073006D0002000000FFFEFF0A41007300
310
730065006D0062006C00690065007300000000000000FFFEFF052D0046006E007300680002000000FFFEFF08460069006E0069007300680065007300000000000000FFFEFF052D004D00610073006B0002000000FFFEFF1241004400540020004D00610073006B0069006E00670020004F0062006A00650063007400000000
310
000000FFFEFF052D005400690074006C0002000000FFFEFF18440072006100770069006E00670020006F0072002000640065007400610069006C0020007400690074006C0065007300000000000000FFFEFF052D004C0069007400650002000000FFFEFF084C00690067006800740069006E006700000000000000FFFEFF05
310
2D00410063006300730002000000FFFEFF06410063006300650073007300000000000000FFFEFF052D004C00610062006C0002000000FFFEFF064C006100620065006C007300000000000000FFFEFF052D00520065006600720002000000FFFEFF195200650066006500720065006E00630065002C00200065007800740065
310
0072006E0061006C002000660069006C0065007300000000000000FFFEFF052D004D00650064006D0002000000FFFEFF1B4D0065006400690075006D0020007700650069006700680074002000670072006100700068006900630020006C0069006E0065007300000000000000FFFEFF052D00530074007200730002000000
310
FFFEFF215300740061006900720020007400720065006100640073002C00200065007300630061006C00610074006F00720073002C0020006C00610064006400650072007300000000000000FFFEFF052D00430075007200740002000000FFFEFF0C4300750072007400610069006E002000570061006C006C000000000000
310
00FFFEFF052D00440065006D006F0002000000FFFEFF0A440065006D006F006C006900740069006F006E00000000000000FFFEFF052D00560069006500770002000000FFFEFF13560069006500770070006F0072007400200044006500660069006E006900740069006F006E00000000000000FFFEFF052D00440069006D00
310
730002000000FFFEFF0A440069006D0065006E00730069006F006E007300000000000000FFFEFF052D0053006C006300650002000000FFFEFF0653006C006900630065007300000000000000FFFEFF052D0043006F006E006E0002000000FFFEFF0B43006F006E006E0065006300740069006F006E007300000000000000FF
310
FEFF052D0042006C006F00770002000000FFFEFF0E45006C0065006D0065006E00740073002000620065006C006F007700000000000000FFFEFF052D00460069006E00650002000000FFFEFF19460069006E00650020007700650069006700680074002000670072006100700068006900630020006C0069006E0065007300
310
000000000000FFFEFF052D00530075007300700002000000FFFEFF12530075007300700065006E00640065006400200065006C0065006D0065006E0074007300000000000000FFFEFF052D004C00650076006C0002000000FFFEFF274C006500760065006C0020006300680061006E006700650073002C002000720061006D
310
00700073002C00200070006900740073002C002000640065007000720065007300730069006F006E007300000000000000FFFEFF052D00460069007800640002000000FFFEFF0F460069007800650064002000650071007500690070006D0065006E007400000000000000FFFEFF052D004F0063006300700002000000FFFE
310
FF1A4F00630063007500700061006E00740020006F007200200065006D0070006C006F0079006500650020006E0061006D0065007300000000000000FFFEFF052D00480069006400650002000000FFFEFF0E480069006400640065006E0020006F0062006A006500630074007300000000000000FFFEFF052D004100640074
310
00760002000000FFFEFF1141006400640069007400690076006500200065006C0065006D0065006E0074007300000000000000FFFEFF052D00520064006D00650002000000FFFEFF1B52006500610064002D006D00650020006C006100790065007200200028006E006F007400200070006C006F0074007400650064002900
310
000000000000FFFEFF052D005300630072006E0002000000FFFEFF14530063007200650065006E006500640020004200610063006B00670072006F0075006E0064007300000000000000FFFEFF052D00460069007800740002000000FFFEFF1170006C0075006D00620069006E006700200066006900780074007500720065
310
007300000000000000FFFEFF052D004C00650067006E0002000000FFFEFF144C006500670065006E00640073002C002000530079006D0062006F006C0020006B00650079007300000000000000FFFEFF052D0043006E007400720002000000FFFEFF0A430065006E007400650072006C0069006E006500000000000000FFFE
310
FF052D00420064007200790002000000FFFEFF0842006F0075006E006400610072007900000000000000FFFEFF052D0050006F007700720002000000FFFEFF0550006F00770065007200000000000000FFFEFF052D00470072007000730002000000FFFEFF06470072006F00750070007300000000000000FFFEFF052D004B
310
00650079006E0002000000FFFEFF084B00650079006E006F00740065007300000000000000FFFEFF052D00420072006300650002000000FFFEFF06420072006100630065007300000000000000FFFEFF052D005300700063006C0002000000FFFEFF0B5300700065006300690061006C007400690065007300000000000000
310
FFFEFF052D004F0074006C006E0002000000FFFEFF074F00750074006C0069006E006500000000000000FFFEFF052D005400700074006E0002000000FFFEFF1154006F0069006C0065007400200070006100720074006900740069006F006E007300000000000000FFFEFF052D005200650066006C0002000000FFFEFF0E52
310
00650066006C0065006300740065006400200050006C0061006E00000000000000FFFEFF052D005400680069006E0002000000FFFEFF195400680069006E0020007700650069006700680074002000670072006100700068006900630020006C0069006E0065007300000000000000FFFEFF052D005000650070006C000200
310
0000FFFEFF06500065006F0070006C006500000000000000FFFEFF052D004F0076006800640002000000FFFEFF084F007600650072006800650061006400000000000000FFFEFF052D004800720061006C0002000000FFFEFF16480061006E0064007200610069006C0073002C002000670075006100720064002000720061
310
0069006C007300000000000000FFFEFF052D004D0061007400630002000000FFFEFF0B4D00610074006300680020006C0069006E0065007300000000000000FFFEFF052D00520044004600460002000000FFFEFF14520065007400750072006E00200061006900720020006400690066006600750073006500720073000000
310
00000000FFFEFF052D00540074006C00620002000000FFFEFF1642006F007200640065007200200061006E00640020007400690074006C006500200062006C006F0063006B00000000000000FFFEFF052D00530077006300680002000000FFFEFF0853007700690074006300680065007300000000000000FFFEFF052D0041
310
00700070006C0002000000FFFEFF0A4100700070006C00690061006E00630065007300000000000000FFFEFF052D00540065006500730002000000FFFEFF094D00610069006E0020007400650065007300000000000000FFFEFF052D005700640077006B0002000000FFFEFF16410072006300680069007400650063007400
310
7500720061006C00200077006F006F00640077006F0072006B00000000000000FFFEFF052D004C0069006E00650002000000FFFEFF0D44006500660069006E0069006E00670020004C0069006E006500000000000000FFFEFF052D004D0061007300730002000000FFFEFF104D0061007300730069006E006700200045006C
310
0065006D0065006E0074007300000000000000FFFEFF052D005400610062006C0002000000FFFEFF0B440061007400610020007400610062006C0065007300000000000000FFFEFF052D00540068006C00640002000000FFFEFF0A5400680072006500730068006F006C0064007300000000000000FFFEFF052D0053006300
310
6800640002000000FFFEFF095300630068006500640075006C0065007300000000000000FFFEFF052D00460075006C006C0002000000FFFEFF0B460075006C006C002D00680065006900670068007400000000000000FFFEFF052D00480065006100640002000000FFFEFF1744006F006F007200200061006E006400200077
310
0069006E0064006F00770020006800650061006400650072007300000000000000FFFEFF052D004D006F007600650002000000FFFEFF124D006F0076006500610062006C0065002000650071007500690070006D0065006E007400000000000000FFFEFF052D00420072006E00670002000000FFFEFF1A4200650061007200
310
69006E0067007300200026002000640069007300740061006E006300650020006C006100620065006C007300000000000000FFFEFF052D0043006F006D00700002000000FFFEFF1349006E007400650072006E0061006C00200063006F006D0070006F006E0065006E0074007300000000000000FFFEFF052D00530074006F
310
00720002000000FFFEFF19530079007300740065006D002000730074006F007200610067006500200063006F006D0070006F006E0065006E0074007300000000000000FFFEFF052D0050006B006E00670002000000FFFEFF075000610072006B0069006E006700000000000000FFFEFF052D004E00690063006E0002000000
310
FFFEFF0F4E006F007400200069006E00200063006F006E0074007200610063007400000000000000FFFEFF052D00430068006100730002000000FFFEFF0543006800610073006500000000000000FFFEFF052D004E0070006C00740002000000FFFEFF204E006F006E002D0070006C006F007400740069006E006700200067
310
00720061007000680069006300200069006E0066006F0072006D006100740069006F006E00000000000000FFFEFF052D005600680063006C0002000000FFFEFF08560065006800690063006C0065007300000000000000FFFEFF052D00520065007600730002000000FFFEFF095200650076006900730069006F006E007300
310
000000000000FFFEFF052D00500061007400740002000000FFFEFF19540065007800740075007200650020006F00720020006800610074006300680020007000610074007400650072006E007300000000000000FFFEFF052D0053006C006100620002000000FFFEFF0553006C00610062007300000000000000FFFEFF052D
310
0043006F006D006D0002000000FFFEFF1A540065006C006500700068006F006E0065002C00200063006F006D006D0075006E00690063006100740069006F006E0073002000000000000000FFFEFF052D00430061007300650002000000FFFEFF08430061007300650077006F0072006B00000000000000FFFEFF052D005200
310
65007600630002000000FFFEFF0F5200650076006900730069006F006E00200063006C006F00750064007300000000000000FFFEFF052D0050006C006E00740002000000FFFEFF0650006C0061006E0074007300000000000000FFFEFF052D00530075006200740002000000FFFEFF14530075006200740072006100630074
310
00690076006500200065006C0065006D0065006E0074007300000000000000FFFEFF052D0050006E006C00730002000000FFFEFF0D530079007300740065006D002000700061006E0065006C007300000000000000FFFEFF052D00520069007300720002000000FFFEFF0C5300740061006900720020007200690073006500
310
72007300000000000000FFFEFF052D00530069006C006C0002000000FFFEFF0C570069006E0064006F0077002000730069006C006C0073000000000000000180FFFEFF074D0069006E006F0072002000320005000000004164642062656C6F77207468652073656C6563746564206974656DFFFEFF001600FFFEFF052D0041
310
0062006F00760002000000FFFEFF0E45006C0065006D0065006E00740073002000610062006F0076006500000000000000FFFEFF052D004E006F007400650002000000FFFEFF16470065006E006500720061006C0020005400650078007400200061006E00640020004E006F00740065007300000000000000FFFEFF052D00
310
460061007300630002000000FFFEFF06460061007300630069006100000000000000FFFEFF052D004900640065006E0002000000FFFEFF0A4900640065006E00740069006600690065007200000000000000FFFEFF052D0055006E006900740002000000FFFEFF0455006E0069007400000000000000FFFEFF052D00540069
310
0074006C0002000000FFFEFF065400690074006C0065007300000000000000FFFEFF052D00440069006D00730002000000FFFEFF0A440069006D0065006E00730069006F006E007300000000000000FFFEFF052D0053006C006300650002000000FFFEFF0653006C006900630065007300000000000000FFFEFF052D004700
310
6C0061007A0002000000FFFEFF0747006C0061007A0069006E006700000000000000FFFEFF052D00480069006400650002000000FFFEFF0F480069006400640065006E00200065006C0065006D0065006E0074007300000000000000FFFEFF052D00420064007200790002000000FFFEFF0D4500640067006500200062006F
310
0075006E006400610072007900000000000000FFFEFF052D00470072007000730002000000FFFEFF06470072006F00750070007300000000000000FFFEFF052D004F0074006C006E0002000000FFFEFF074F00750074006C0069006E006500000000000000FFFEFF052D005200650066006C0002000000FFFEFF0F52006500
310
66006C0065006300740065006400200050006C0061006E007300000000000000FFFEFF052D005400680069006E0002000000FFFEFF0E4D0069006E006F00720020006C0069006E00650077006F0072006B00000000000000FFFEFF052D004C0069006E00650002000000FFFEFF10470065006E006500720061006C0020006C
310
0069006E00650077006F0072006B00000000000000FFFEFF052D004E0070006C00740002000000FFFEFF154E006F006E002D0070006C006F007400740069006E006700200065006C0065006D0065006E0074007300000000000000FFFEFF052D00530066006900740002000000FFFEFF0653006F0066006600690074000000
310
00000000FFFEFF052D00500061007400740002000000FFFEFF0E4800610074006300680020007000610074007400650072006E007300000000000000FFFEFF052D005300630061006C0002000000FFFEFF10470072006100700068006900630061006C0020005300630061006C0065007300000000000000FFFEFF052D0052
310
0069007300720002000000FFFEFF06520069007300650072007300000000000000FFFEFF052D00530069006C006C0002000000FFFEFF05530069006C006C0073000000000000000180FFFEFF06530074006100740075007300060000000000000000A434770470040000B10000005073770400000000050000FFFEFF000F00
310
FFFEFF022D00540002000000FFFEFF0E540065006D0070006F007200610072007900200077006F0072006B00000000000000FFFEFF022D00450002000000FFFEFF124500780069007300740069006E006700200074006F002000720065006D00610069006E00000000000000FFFEFF022D00380002000000FFFEFF07500068
310
0061007300650020003800000000000000FFFEFF022D00390002000000FFFEFF075000680061007300650020003900000000000000FFFEFF022D00360002000000FFFEFF075000680061007300650020003600000000000000FFFEFF022D00370002000000FFFEFF075000680061007300650020003700000000000000FFFE
310
FF022D004E0002000000FFFEFF084E0065007700200077006F0072006B00000000000000FFFEFF022D00340002000000FFFEFF075000680061007300650020003400000000000000FFFEFF022D00350002000000FFFEFF075000680061007300650020003500000000000000FFFEFF022D00320002000000FFFEFF07500068
310
0061007300650020003200000000000000FFFEFF022D004D0002000000FFFEFF114900740065006D007300200074006F0020006200650020006D006F00760065006400000000000000FFFEFF022D00330002000000FFFEFF075000680061007300650020003300000000000000FFFEFF022D00310002000000FFFEFF075000
310
680061007300650020003100000000000000FFFEFF022D00460002000000FFFEFF0B460075007400750072006500200077006F0072006B00000000000000FFFEFF022D00440002000000FFFEFF144500780069007300740069006E006700200074006F002000640065006D006F006C006900730068000000000000000600FF
310
FF04001A004163416563556B4C61796572436F6D706F6E656E744669656C64FFFEFF174400690073006300690070006C0069006E0065002000440065007300690067006E00610074006F0072002000310001000000FFFEFF0440002C0040004000000000000100000000FFFEFF014100000000000780FFFEFF174400690073
310
006300690070006C0069006E0065002000440065007300690067006E00610074006F0072002000320001000000FFFEFF0440002C0040004000010000000100000000FFFEFF014400000000000780FFFEFF054D0061006A006F00720005000000FFFEFF052D00400040004000400000000000010000002DFFFEFF052D005700
310
61006C006C00000000000780FFFEFF064D0069006E006F007200310005000000FFFEFF022D002A0001000000010000002DFFFEFF052D004900640065006E00000000000780FFFEFF064D0069006E006F007200320005000000FFFEFF022D002A0001000000010000002DFFFEFF052D005400650078007400000000000780FF
310
FEFF0653007400610074007500730002000000FFFEFF022D002A0001000000010000002DFFFEFF022D004E0000000000050000010203040500FFFEFF00FFFEFF0320002D002000FFFEFF022C002000FFFEFF012000FFFEFF0320002D002000FFFEFF00
  0
XRECORD
  5
AE7AA
102
{ACAD_REACTORS
330
A21DF
102
}
330
A21DF
100
AcDbXrecord
280
     1
102
DISPLAYNAME
  1
Imperial24
102
FLAGS
 90
        0
  0
XRECORD
  5
AE7A9
102
{ACAD_REACTORS
330
A21DD
102
}
330
A21DD
100
AcDbXrecord
280
     1
102
DISPLAYNAME
  1
Imperial24
102
FLAGS
 90
        0
  0
CELLSTYLEMAP
  5
AE7A8
102
{ACAD_REACTORS
330
B4E
102
}
330
B4E
100
AcDbCellStyleMap
 90
        3
300
CELLSTYLE
  1
TABLEFORMAT_BEGIN
 90
        5
170
     1
 91
        0
 92
    32768
 62
   257
 93
        1
300
CONTENTFORMAT
  1
CONTENTFORMAT_BEGIN
 90
        0
 91
        0
 92
      512
 93
        0
300

 40
0.0
140
1.0
 94
        5
 62
     0
340
11
144
0.25
309
CONTENTFORMAT_END
171
     1
301
MARGIN
  1
CELLMARGIN_BEGIN
 40
0.06
 40
0.06
 40
0.06
 40
0.06
 40
0.18
 40
0.18
309
CELLMARGIN_END
 94
        6
 95
        1
302
GRIDFORMAT
  1
GRIDFORMAT_BEGIN
 90
        0
 91
        1
 62
     0
 92
       -2
340
0
 93
        0
 40
0.045
309
GRIDFORMAT_END
 95
        2
302
GRIDFORMAT
  1
GRIDFORMAT_BEGIN
 90
        0
 91
        1
 62
     0
 92
       -2
340
0
 93
        0
 40
0.045
309
GRIDFORMAT_END
 95
        4
302
GRIDFORMAT
  1
GRIDFORMAT_BEGIN
 90
        0
 91
        1
 62
     0
 92
       -2
340
0
 93
        0
 40
0.045
309
GRIDFORMAT_END
 95
        8
302
GRIDFORMAT
  1
GRIDFORMAT_BEGIN
 90
        0
 91
        1
 62
     0
 92
       -2
340
0
 93
        0
 40
0.045
309
GRIDFORMAT_END
 95
       16
302
GRIDFORMAT
  1
GRIDFORMAT_BEGIN
 90
        0
 91
        1
 62
     0
 92
       -2
340
0
 93
        0
 40
0.045
309
GRIDFORMAT_END
 95
       32
302
GRIDFORMAT
  1
GRIDFORMAT_BEGIN
 90
        0
 91
        1
 62
     0
 92
       -2
340
0
 93
        0
 40
0.045
309
GRIDFORMAT_END
309
TABLEFORMAT_END
  1
CELLSTYLE_BEGIN
 90
        1
 91
        1
300
_TITLE
309
CELLSTYLE_END
300
CELLSTYLE
  1
TABLEFORMAT_BEGIN
 90
        5
170
     1
 91
        0
 92
        0
 62
   257
 93
        1
300
CONTENTFORMAT
  1
CONTENTFORMAT_BEGIN
 90
        0
 91
        0
 92
      512
 93
        0
300

 40
0.0
140
1.0
 94
        5
 62
     0
340
11
144
0.18
309
CONTENTFORMAT_END
171
     1
301
MARGIN
  1
CELLMARGIN_BEGIN
 40
0.06
 40
0.06
 40
0.06
 40
0.06
 40
0.18
 40
0.18
309
CELLMARGIN_END
 94
        6
 95
        1
302
GRIDFORMAT
  1
GRIDFORMAT_BEGIN
 90
        0
 91
        1
 62
     0
 92
       -2
340
0
 93
        0
 40
0.045
309
GRIDFORMAT_END
 95
        2
302
GRIDFORMAT
  1
GRIDFORMAT_BEGIN
 90
        0
 91
        1
 62
     0
 92
       -2
340
0
 93
        0
 40
0.045
309
GRIDFORMAT_END
 95
        4
302
GRIDFORMAT
  1
GRIDFORMAT_BEGIN
 90
        0
 91
        1
 62
     0
 92
       -2
340
0
 93
        0
 40
0.045
309
GRIDFORMAT_END
 95
        8
302
GRIDFORMAT
  1
GRIDFORMAT_BEGIN
 90
        0
 91
        1
 62
     0
 92
       -2
340
0
 93
        0
 40
0.045
309
GRIDFORMAT_END
 95
       16
302
GRIDFORMAT
  1
GRIDFORMAT_BEGIN
 90
        0
 91
        1
 62
     0
 92
       -2
340
0
 93
        0
 40
0.045
309
GRIDFORMAT_END
 95
       32
302
GRIDFORMAT
  1
GRIDFORMAT_BEGIN
 90
        0
 91
        1
 62
     0
 92
       -2
340
0
 93
        0
 40
0.045
309
GRIDFORMAT_END
309
TABLEFORMAT_END
  1
CELLSTYLE_BEGIN
 90
        2
 91
        1
300
_HEADER
309
CELLSTYLE_END
300
CELLSTYLE
  1
TABLEFORMAT_BEGIN
 90
        5
170
     1
 91
        0
 92
        0
 62
   257
 93
        1
300
CONTENTFORMAT
  1
CONTENTFORMAT_BEGIN
 90
        0
 91
        0
 92
      512
 93
        0
300

 40
0.0
140
1.0
 94
        2
 62
     0
340
11
144
0.18
309
CONTENTFORMAT_END
171
     1
301
MARGIN
  1
CELLMARGIN_BEGIN
 40
0.06
 40
0.06
 40
0.06
 40
0.06
 40
0.18
 40
0.18
309
CELLMARGIN_END
 94
        6
 95
        1
302
GRIDFORMAT
  1
GRIDFORMAT_BEGIN
 90
        0
 91
        1
 62
     0
 92
       -2
340
0
 93
        0
 40
0.045
309
GRIDFORMAT_END
 95
        2
302
GRIDFORMAT
  1
GRIDFORMAT_BEGIN
 90
        0
 91
        1
 62
     0
 92
       -2
340
0
 93
        0
 40
0.045
309
GRIDFORMAT_END
 95
        4
302
GRIDFORMAT
  1
GRIDFORMAT_BEGIN
 90
        0
 91
        1
 62
     0
 92
       -2
340
0
 93
        0
 40
0.045
309
GRIDFORMAT_END
 95
        8
302
GRIDFORMAT
  1
GRIDFORMAT_BEGIN
 90
        0
 91
        1
 62
     0
 92
       -2
340
0
 93
        0
 40
0.045
309
GRIDFORMAT_END
 95
       16
302
GRIDFORMAT
  1
GRIDFORMAT_BEGIN
 90
        0
 91
        1
 62
     0
 92
       -2
340
0
 93
        0
 40
0.045
309
GRIDFORMAT_END
 95
       32
302
GRIDFORMAT
  1
GRIDFORMAT_BEGIN
 90
        0
 91
        1
 62
     0
 92
       -2
340
0
 93
        0
 40
0.045
309
GRIDFORMAT_END
309
TABLEFORMAT_END
  1
CELLSTYLE_BEGIN
 90
        3
 91
        2
300
_DATA
309
CELLSTYLE_END
  0
ENDSEC
  0
SECTION
  2
ACDSDATA
 70
     2
 71
     8
  0
ACDSSCHEMA
 90
        0
  1
AcDb_Thumbnail_Schema
  2
AcDbDs::ID
280
    10
 91
        8
  2
Thumbnail_Data
280
    15
 91
        0
101
ACDSRECORD
 95
        0
 90
        1
  2
AcDbDs::TreatedAsObjectData
280
     1
291
     1
101
ACDSRECORD
 95
        0
 90
        2
  2
AcDbDs::Legacy
280
     1
291
     1
101
ACDSRECORD
  1
AcDbDs::ID
 90
        3
  2
AcDs:Indexable
280
     1
291
     1
101
ACDSRECORD
  1
AcDbDs::ID
 90
        4
  2
AcDbDs::HandleAttribute
280
     7
282
     1
  0
ACDSSCHEMA
 90
        1
  1
AcDbDs::TreatedAsObjectDataSchema
  2
AcDbDs::TreatedAsObjectData
280
     1
 91
        0
  0
ACDSSCHEMA
 90
        2
  1
AcDbDs::LegacySchema
  2
AcDbDs::Legacy
280
     1
 91
        0
  0
ACDSSCHEMA
 90
        3
  1
AcDbDs::IndexedPropertySchema
  2
AcDs:Indexable
280
     1
 91
        0
  0
ACDSSCHEMA
 90
        4
  1
AcDbDs::HandleAttributeSchema
  2
AcDbDs::HandleAttribute
280
     7
 91
        1
284
     1
  0
ACDSRECORD
 90
        0
  2
AcDbDs::ID
280
    10
320
A21A1
  2
Thumbnail_Data
280
    15
 94
     3293
310
89504E470D0A1A0A0000000D4948445200000100000000C508030000008CFEDCE700000300504C5445FFFFFF000000C8C8C80000000000000000000000000000000000000000000000000000330000660000990000CC0000FF0033000033330033660033990033CC0033FF0066000066330066660066990066CC0066FF0099
310
000099330099660099990099CC0099FF00CC0000CC3300CC6600CC9900CCCC00CCFF00FF0000FF3300FF6600FF9900FFCC00FFFF3300003300333300663300993300CC3300FF3333003333333333663333993333CC3333FF3366003366333366663366993366CC3366FF3399003399333399663399993399CC3399FF33CC00
310
33CC3333CC6633CC9933CCCC33CCFF33FF0033FF3333FF6633FF9933FFCC33FFFF6600006600336600666600996600CC6600FF6633006633336633666633996633CC6633FF6666006666336666666666996666CC6666FF6699006699336699666699996699CC6699FF66CC0066CC3366CC6666CC9966CCCC66CCFF66FF0066
310
FF3366FF6666FF9966FFCC66FFFF9900009900339900669900999900CC9900FF9933009933339933669933999933CC9933FF9966009966339966669966999966CC9966FF9999009999339999669999999999CC9999FF99CC0099CC3399CC6699CC9999CCCC99CCFF99FF0099FF3399FF6699FF9999FFCC99FFFFCC0000CC00
310
33CC0066CC0099CC00CCCC00FFCC3300CC3333CC3366CC3399CC33CCCC33FFCC6600CC6633CC6666CC6699CC66CCCC66FFCC9900CC9933CC9966CC9999CC99CCCC99FFCCCC00CCCC33CCCC66CCCC99CCCCCCCCCCFFCCFF00CCFF33CCFF66CCFF99CCFFCCCCFFFFFF0000FF0033FF0066FF0099FF00CCFF00FFFF3300FF3333
310
FF3366FF3399FF33CCFF33FFFF6600FF6633FF6666FF6699FF66CCFF66FFFF9900FF9933FF9966FF9999FF99CCFF99FFFFCC00FFCC33FFCC66FFCC99FFCCCCFFCCFFFFFF00FFFF33FFFF66FFFF99FFFFCCFFFFFF0000000D0D0D1A1A1A2828283535354343435050505D5D5D6B6B6B787878868686939393A1A1A1AEAEAEBB
310
BBBBC9C9C9D6D6D6E4E4E4F1F1F1FFFFFF000000000000000000000000000000000000000000000000000000000000B0E2D2350000076F4944415478DAED9D499AAB201080EB44DE7F9593D4AAD76FC1115E642C8A4134A8A0C5D79D18C4B4F553138836FC7B79817FF0DE22000480004801FCFDADBF0F7D6D03F0E0D2AA01
310
4F2D4D004000BC1CC09F00100002409CA000101310000240008813140062020240000800718202404C4000080001204E500088090800012000C4090A809B0A46E51526100BFA3E004CD2B70158855C7F5E0A404B58D380CD32B513B4A7CFE5F8A9E72702E0A544B2ED3FEF2EB399803B637BF6340C689FF0740058F40187BA
310
7F3600DEF86FF6013701F0DA1F3E63F73F32AE13444C42C019044605C0C40774B9D04B86C39846C037F9006EFC098F9628302F004CC4C5829654F3805901A4E217EDFE3A0DB8CE09C6465F97FF8900105263C773FFE4482680595FF71A0039ED3F5FFE6100604EFBB7E4EF9006F403806788BF217F0FFDE8E604B183F8C997
310
54BBD88C0D8E7AFF81006051DC7AEA7F21808C097C7A01286ABFAED870013FC4FF1F017C3A01288BDF00A04B883806E09316FCEC2F8895A375D5D941F00713E03A800A942BDF2D80F547854A703F4AEFFC6E21DA4DBD05A1916BB0EE190300B4F8002BA6953C08BF56B8F7C0489903D696881E113D5AD70C62024D0040D173
310
57B4C3A95ED84F88AECF11120D09BC369DE07D269003C0B43D122812129DBE18ED2F723B12067786827E0052793392BBDEB79F1121D39494A90044E70EB42721A8B53679578F41624ECF7A8E0379C08D0098E44426B02601DEE4AD1B00E639C0790AEB30B131871E240A40AE23158D863EE071ED0F9247B55385C1448581D9
310
34108F872A0A955C78E744C74A84AA1687E1B421F16660C487D40D5217E191041E8398C00E00913CD4C1B974C7193F77F82476122D1A2B0FD80490C813141B553EF481979A6BCCCE3CE0FE442804FB24A3B3791F7812C5C00FCC370E02A0310A64323A8885726E10E2B1911B44283732F26EA03D0F18643044C6828A0A6495
310
1FB98D9304211C8D0E130CE6049B4683D100D80E7A4C17232EBC64BCA0CD00AD1E0C3C1FB09107F8A1CEDAF4FB61597049BE4433F8EEFD44B9A0CB9357063301C8CF12D1FECE02D0A53C63341100FBAEA23758BE527E5FA0082034C91D5EF56EB72E94FC94E66614B809B1A300C8E11831485688240BA86F0340CEA115C07A
310
E25B0030D603364B1C1648DC6002F194283D837613405DF9C580C443D2C331CD7A207BC3C0DDD3E291FF63FB0E3A41FD2D5B367F2300362D1ED2D76FBD7EFFEEF5814D6F1601AC11EF1322E7EAFA71BD5E9011AC8BD33B270AA0D75C6595386C994DAE06E1336F19B6780F238CBB5234CCED47935B69A507B0D9924C09126B
310
1F77A528D635C06D4500AA2DF556EA074731810C81133420CE85475F298A6531C2A607D0623176FEA420F0EFF70A7406E0D4B36A079133DCB0183354A60B28E21B07F7DF3172320068F1848B8901AA55038C19649DE0751A00FD3440E7BC2EF36DD28070E6B95B66C68902DB3EC0EBFEA21364970454342073AF280C1B05D4
310
7614708383A0011BB2F328D06712EC24002D790001A0C8E889B534DDCEF2807B13A12600DB11D0D9C0E283016FE9FADD5746778AE0193670A906ACEF46FD974CD217FA3DAEC4FB1321E8A20166CB64004B9AF69B0BC7B4321518CA0F10387AF3404700A0FCD500FAC22A172000CA2D8D3EA89A0FD893085DE203A02515560B
310
C9840B2DBD2320C3413733763011BA08406B2204E544480B1F1221A4338EF72542176980ED799A0AC7A1FF843C68180D08BD19A5C267E47E273AC1831A80F155D3281D1CE3CA50D730085118B4369F6B39F6B5C11F12210D6015DBA87DA1A559443713805D1A8024D4E55A3AB578AE06545BDA45054FD680A5DC328A855339
310
C1A628102F0EC9CC0223CF036602D03229EAA705722DB9539CCA07346A40655A1C3199149D0C40A3062C590DC86782CFD3003D2594F800240B24A7D58096284097C801B9FAE3DBF97583D14CFB144EB0290F70D7C70D00370E2273A6F94B0D8F190B84B540FAA280BB71627800DD3241B24AC44C8D5BF11F0300E2D9FE5403
310
C83299757D94BB98020F009094CC5467B0003320447BA7D09DE5F447682872012C06B0A8AAF68F04A0C363748CACD4072CCB00E25F05C03902B2564EA742B300F8EBA701340C0E20FE958FD1D1CE607197C6CC68E8550080AE92B06B23DE0580AE1905358407848B1FA6C6B3A3D70180383F06789B0918C9E9DB0B018C5604
310
8000B8D4090A003101012000048038C1A9019CB262791E13084B36DF09A0FC00D8770088966A571FE686F63E575EC91F81E7BEC71B57F61979806C2724AD20DDE80F803DBD800A80FC040D80ECC95111209C6D9623428A2C0B9FFC13967D0F15D8E304E9ED6BA15360EB4C0A2DB6761151A1DAD5EC982B0184BF953F994A1D
310
140FCBB4E6B74FD717C69F008098002209051395FE00303CDA03DF1205D0FDDF4784F47FDD8D24D49E478CEE7B9C1E78EF9D01908D53CF00E05AA13300041EB880DED764E3E06D9A711A807A26982402530C1B768F05B0381648ADE181006AB76A3100560964424400C88C9000101310000240008813140062020240000800
310
718202404C4000080001204E500088090800012000C409CE04E0C1A5CD04D6764F7D6DD180171501200004C03FFDF2E6F27A00FF0117FADA3638F4E6E80000000049454E44AE426082A5353C1040ED126E0120288155840CC01300D87F9F3713300006C00098133400660206C0001800738206C04CC000180003604ED00098
310
091800036000CC09BE08C083DB361398FA3DF5718B06BCA81900036000FEF98737B7D703F80FCB4F2CA92A55373B0000000049454E44AE42608209B23F7304D067E9FAD8BD00D380640220A98C58561EA5B1E5F901EECF7D50D8B95ADE551A3A8C11351E06C0FDB193283D54F6EB3F1D00CD0442C9166ABDDF73003002B4F4
310
7FC150F21F9B102180258747FB1FE470978CD0B254B5584F13220A4001288007394105A026A0001480025027A800D4041480025000EA0415809A800250000A409DA002501350000A4001A8137C3C800797361398AE7BEA6B8B06BCA8280005A000FED9973797D703F80F483056FC0F94E2B20000000049454E44AE4260823D
310
80FFA6BD4883BDDC5A6A0000000049454E44AE426082A90694DBDDF47700907C007F7AE2FF3B22537C680C691448FFFF35880074747BC50747652A9C01003E04809CCE5091FF82367056D819FA29D447ED395E4B888CDBA08D00785099009C768213806902138009C004603AC1B701F0E09267026BBDA7BEE768C08BCA0460
310
023001F8A7DFDE5C5E0FC07F153036D95C42CA8A0000000049454E44AE4260824E44AE426082BAC014C16300862E292EB09D35EC6B02033E552600138009C0BF8F97CF03F01F3BFEE972AD450A590000000049454E44AE426082807F1F2F9F07E03FCF7BC2D0801C39B80000000049454E44AE426082
  0
ACDSRECORD
 90
        0
  2
AcDbDs::ID
280
    10
320
A21B9
  2
Thumbnail_Data
280
    15
 94
     2765
310
89504E470D0A1A0A0000000D4948445200000100000000B5080300000087DCD12600000300504C5445FFFFFF000000C8C8C80000000000000000000000000000000000000000000000000000330000660000990000CC0000FF0033000033330033660033990033CC0033FF0066000066330066660066990066CC0066FF0099
310
000099330099660099990099CC0099FF00CC0000CC3300CC6600CC9900CCCC00CCFF00FF0000FF3300FF6600FF9900FFCC00FFFF3300003300333300663300993300CC3300FF3333003333333333663333993333CC3333FF3366003366333366663366993366CC3366FF3399003399333399663399993399CC3399FF33CC00
310
33CC3333CC6633CC9933CCCC33CCFF33FF0033FF3333FF6633FF9933FFCC33FFFF6600006600336600666600996600CC6600FF6633006633336633666633996633CC6633FF6666006666336666666666996666CC6666FF6699006699336699666699996699CC6699FF66CC0066CC3366CC6666CC9966CCCC66CCFF66FF0066
310
FF3366FF6666FF9966FFCC66FFFF9900009900339900669900999900CC9900FF9933009933339933669933999933CC9933FF9966009966339966669966999966CC9966FF9999009999339999669999999999CC9999FF99CC0099CC3399CC6699CC9999CCCC99CCFF99FF0099FF3399FF6699FF9999FFCC99FFFFCC0000CC00
310
33CC0066CC0099CC00CCCC00FFCC3300CC3333CC3366CC3399CC33CCCC33FFCC6600CC6633CC6666CC6699CC66CCCC66FFCC9900CC9933CC9966CC9999CC99CCCC99FFCCCC00CCCC33CCCC66CCCC99CCCCCCCCCCFFCCFF00CCFF33CCFF66CCFF99CCFFCCCCFFFFFF0000FF0033FF0066FF0099FF00CCFF00FFFF3300FF3333
310
FF3366FF3399FF33CCFF33FFFF6600FF6633FF6666FF6699FF66CCFF66FFFF9900FF9933FF9966FF9999FF99CCFF99FFFFCC00FFCC33FFCC66FFCC99FFCCCCFFCCFFFFFF00FFFF33FFFF66FFFF99FFFFCCFFFFFF0000000D0D0D1A1A1A2828283535354343435050505D5D5D6B6B6B787878868686939393A1A1A1AEAEAEBB
310
BBBBC9C9C9D6D6D6E4E4E4F1F1F1FFFFFF000000000000000000000000000000000000000000000000000000000000B0E2D235000007194944415478DAED9DCB76A3300C86FF27E2FD577912AD663967167E84017C937C25492936C8ED49293129FA244BB23014FF1EDEF0EFEF83DB0E000F6E0A4001E400FEACEDC6AF5D00
310
7F6EDEFA00EE6DF30A4001280005A00014800250000A4001280005A00014800250000A4001280005A000660140A23D028014F47900084F06B00BF95C00BB80D41A02DD3633007FF6A9189F6B7E2A0041C86D839237E883361700A6FDC407EC4E11370710C5CFA3C047DA9F0C0015ACE07B02D30070A7CA7CC0D74E6F262718
310
D45E4B84EE0D8008B9FA9F0320131F541A0277CD03A2D66BDEF0501E302D0042262D552747B81D002A289B8E1404EE01A0243EE85849E406000A83BF25FFDDA2001506FFC9F28F04A022FE6300504D5E3A44ED7A00748EFA3BF27F6D1F6300A88BDF56712509980D4043FC4DC4BB03206A7C02755DC055005EAF1F02400D5B
310
7755A0119DE02B6FF4FAA011A51BD9279E1A04BF1802AFD406C8C0AC6D7F713FFDB66F40DC8FF58BC8FDB2EAD184C3F9F7F6DEB0005263F492C109CA50D87D5C2C58A96D4F8AA810BAC0ED1B16403E980D1350EA5CEEB372796076ABD2151D00171644CA00A2CE0BD68C28A7137ADF825736C4E1DE18E8ED20F0562CF84100
310
C1B8A5387E1F82A0AB568D1F2BC4C68A180361672F0FC0380072C787823BDCD5EFECDD1B02F78F481CE93C1600930400444FC65C3C858EDEF723882F7B62321F202486B4E9B02FEA3CB881149CB418CC140552F30F7B101D3E1C26122111468410B0C34702D01C6E945970F47AC1F5EFD9801BFCD1DD253DD797903BCC0480
310
BBB1DC13C204E377E2CBCC51E600ECDD917C40C70200298248029CD036B28BA8E08D1D4893A57DE7F12830C61088719F6B97C53BA274B200E9278333C59B79C0E55100591213D2DE2022919F30988A1D6CA21C4D857FDB020EE401519508B319022791463A640E800CC55C09B3E50172E4079527899F49BB6593E8600753CD
310
06B311E022DFFABD2C0B2DC5161D60322E7606132542C582CF56E9595EAB94BBACD9A7EC00CCDAA151319AC7026C33E28795D1B72280F44D238EEF0CF2EB2E8CBC6AC54D6BF30200F6EF1A80F575EF203FC0B0BA302B1CA72B45AFBB30F2AA29C2843CB6036013A60CC047916C89EC1EF58BD7057E1D801C9AFCEF1F06B0C9
310
D3B180E2A2C80101883FFFB10FA0CC075031F14187CA15D705DAD7043E8F02D40370A513943610F46E82060DF8CE86134CBB46BD9A6CA9C038EB04D3CB2294D77F9016850404970555BADACD34CF1F7AA92CB52DC06F4600E5F7B34D4AA73DA302B0F3E1A6056C9B0240BB6B3E1F1E7BA5A89BF586796DF812BF4B0B6876F5
310
9B7CBD647ABFC0FB2BE6CF0310AB5E458DBA2D3609EA758D9BD55B663EB863E45400A92328F984C5B940F4BB7247E0CEFEFB3B46AEB600B3580A8B396E01E1BCB3E5F2830120E0A005F8CCB76F01F2A4878E02B1EE5D536BC887172CFE978605D85C885F1F4E274343013007C220BCF6830554631F855A1A25939F891321A7
310
F45D7A363D4ABB5A3B978950D9098E05C01C4A848C9BF9168C7F4BA75951DCEF65237FE844E8602A2C0088F7AD74A5BD7581875A2A7BD4027C1CE8A6C26E42D8980EBF95059D0F00BD2810F300F4F2003F14580C703E009FDE3FFF1B000EE70168E4012EFAF99DE2DEE16F6E9D9DC202ACE2C54E4A8AA3A354847EDE028270
310
F278C28F273FE35940080085E38926B965E678148088022CE72BCF8306BD34F6791EC000C89C2F3F8A089807C09B1690E77C791E30F2E5F16F2DC00EFA7A573B3070630B6866822C184E04A059D90C4551BE30A25214F5D5D5EE6AF119C320AB0A574B017922348D05F413A108A0D89582F69354F8191640544884EE6701BE
310
2E94D73F4D3915BE9705D8C512C82E8CB07C70560B38786DD0D685F78A304FF8E312DB62ADFD2E8950580A634BE27E1E984A3D25804316C01649B841607821706A005ED90D4F08B6166A03602B1A2DF16703C0AE93142D80AF92D9D645B9A18F3B0028348374488865420B19D351FFF9EDD79E21E26702C2022E17FFD70004
310
0B3089137C0A80E009E332B17DEB69009809B83532C0530080D70310D6063C0900C4320957117A14006E053043E8FF1A00ECBEB2C70180982C3D12C0684D01280005A00014800250000A400128808300CEB8756D2200C5479F3F0800B51E81FA080062B3BD32D7AEF02471C317659BE1C6B738BCD2CF212407A0F43954DAFD
310
D30092A5FAC5D3C80114CE2B959EE252E8029B54F8DAD384D91FC66900FC19D401B0671AC87DA859803CFD0C00B8F828774DC99F03C069C9DDB7C38DB3A8BDF25982F3904F40A86BD51F16BED04470260084873DD374ED7B00242D00F186CEE1DAE1278CBEED03120067DDD63F2A00E24E3003C0DC421CE17702E0A5F28FFD
310
CF1E295874F9770280D6FF02180AC0699321A246225C0C7EB79C0DD6ECAE90D5683D4001280005A00014800250000A4001280005A00014800250000A4001280005A000E60270F37608C09D5FBB009ED51480025801FC7D70DB013CBCFD073E7F106BBDAB89430000000049454E44AE42608205A00014800250000A40012800
310
05A00014800250000A4001280005A00014800278388087B743009EFCB80B60AEA60014C01BC0DF899B033079FB0F3708CD6E2E3C47990000000049454E44AE4260820C4003F8FBC36306F0E3E33F46BC776E6459FA1B0000000049454E44AE426082
  0
ACDSRECORD
 90
        0
  2
AcDbDs::ID
280
    10
320
22
  2
Thumbnail_Data
280
    15
 94
     3005
310
89504E470D0A1A0A0000000D49484452000001000000007B0803000000AC3EAEE200000300504C5445212830000000C8C8C80000000000000000000000000000000000000000000000000000330000660000990000CC0000FF0033000033330033660033990033CC0033FF0066000066330066660066990066CC0066FF0099
310
000099330099660099990099CC0099FF00CC0000CC3300CC6600CC9900CCCC00CCFF00FF0000FF3300FF6600FF9900FFCC00FFFF3300003300333300663300993300CC3300FF3333003333333333663333993333CC3333FF3366003366333366663366993366CC3366FF3399003399333399663399993399CC3399FF33CC00
310
33CC3333CC6633CC9933CCCC33CCFF33FF0033FF3333FF6633FF9933FFCC33FFFF6600006600336600666600996600CC6600FF6633006633336633666633996633CC6633FF6666006666336666666666996666CC6666FF6699006699336699666699996699CC6699FF66CC0066CC3366CC6666CC9966CCCC66CCFF66FF0066
310
FF3366FF6666FF9966FFCC66FFFF9900009900339900669900999900CC9900FF9933009933339933669933999933CC9933FF9966009966339966669966999966CC9966FF9999009999339999669999999999CC9999FF99CC0099CC3399CC6699CC9999CCCC99CCFF99FF0099FF3399FF6699FF9999FFCC99FFFFCC0000CC00
310
33CC0066CC0099CC00CCCC00FFCC3300CC3333CC3366CC3399CC33CCCC33FFCC6600CC6633CC6666CC6699CC66CCCC66FFCC9900CC9933CC9966CC9999CC99CCCC99FFCCCC00CCCC33CCCC66CCCC99CCCCCCCCCCFFCCFF00CCFF33CCFF66CCFF99CCFFCCCCFFFFFF0000FF0033FF0066FF0099FF00CCFF00FFFF3300FF3333
310
FF3366FF3399FF33CCFF33FFFF6600FF6633FF6666FF6699FF66CCFF66FFFF9900FF9933FF9966FF9999FF99CCFF99FFFFCC00FFCC33FFCC66FFCC99FFCCCCFFCCFFFFFF00FFFF33FFFF66FFFF99FFFFCCFFFFFF0000000D0D0D1A1A1A2828283535354343435050505D5D5D6B6B6B787878868686939393A1A1A1AEAEAEBB
310
BBBBC9C9C9D6D6D6E4E4E4F1F1F1FFFFFF000000000000000000000000000000000000000000000000000000000000B21171F6000002054944415478DAED9BED6DC3300C4439A306F6241C422334D6872D5AAA1BA0015A93EFA146E5247FEE7CA228A51501000000000000000000000000000000F85354B5FD6AA378FA231B
310
F0926C0CB8E25FFE2501A14CA8F27B02249A014DBE042D7DD2E4CB988058B54FB4F930AC06518A5F4FFFA83F50024EF946BF2B03F42DF956B28BDC6F3F1AA0C3BB7A4DC0E30BC0D6D16D8D6ABDFA8DBB29B0B508685EA15AAFE1157706C8F706CCF2AD012E56C11B03B45DF926018E0D583D7E5F53C03E3E7D4BBE4303B695
310
01CBC95F5F58D400774570579A3435868A507C71BB0A9C0BFF2EFB50B6DF8C5D81BBEE7F3B9F65969C9BE494BA2FC7DDEBBDDC8F023C6D87B753C8C200B5060C276166F0E846F068784FD2A1BA0EC6CED8EC821C4D88B9E3C9C580B93BF07AFC313B60D600DB08B83C129B1C488B009C21988FC41EDE155FF4971A3065A0CB
310
F398005DE4DF3642B51554AF5F882D8A603AA640135F07311230D700AD2EE8B50FF0F2A5D0AD014702CA30580206F1E54E9CB234C08A2FDBC15806A4F940209201A60BE851086AC03913E21830B441A60A0632A06C878BFCF1736E0D685B02B31B96542A9F443060DC170D06EC7340E2D1A74054FDC5825E0445A23A5091B8
310
E4F20300E096A87FF36BBA5AFD188F7CFE1ADA00E9079C9FE5A109905F0A78620E8CF28806D85520CA3F3D0100000000000000000000000000000000FC0BBE009617F4643757A3510000000049454E44AE426082C0E88268111FE0622CFE4D17A845903C71BD0BE4221844807E0BB45D4015C0AE1BD66B8038E1AC400EFF60
310
00E64F0019896DE10FF74F74BD113CBD1F9495F502E491A8EC7DCF02B4A3A1AA4111600C7FA2A39F7F941701F254F862FC9E042011E0752B7E72F58D89CE094614409E82490BA06F05B0EE8FF28030AC0000DCF453B1BE3A07012E0B107E0B3C75A5918BD576E41F61235529BC003F8B1F023C5D8FBC057EB9DE47A7C35003
310
289800342C2D9C6FD9C7899B58000000000000000000000000004FE60FFE08CD17352CD2C80000000049454E44AE4260820301FE06B0CAA188ED0516FE048C2A008BAECF24912A41890A78EA02C5A14E126D02407C1D10E7036AF40451C43A4020EEEA806C46A88C10AE0AC8EB00B10474151008B8067E9A06E755401C1196
310
819F4E88DC4C18CF150392EB0F28803B013759C08F86C364C03911E095303CB32AB8128CD3C1918123EFF566C55F15433FAC0A6E2AC16C69CC0F002DCC4740444D0190A581AAF8BF12C0CD27A83F640418DB36BF4BB1D4C706387FC85C001AE29F9480A8802C08FE1F02D85211EA8094045E4619B9CFD048AB43664D02CE88
310
789A0F6FED977D073D49092B12005989046B12A05028BE8E369679A09812A004BC2460F918F0A7E7B278385E9A83EC3E50FC197EDAFF89893509789B98E62100CFDF9509C0F4DC5746F83B170897B284C77F23FCE4291F3FD2445200BD7C75190282FD4514809508B8A4837A4E98BD2A8775095028140A8542A15028140A85
310
42A1108E7F3204E5EA381F8BEE0000000049454E44AE42608270230156C01F0A55EEF97E04BC0D0000000049454E44AE4260821611C41201262220701CC4F91480AD406582309B642B88E9E084F06D6A00302905F23C25054B962C59B264C9926184267DCC6B81CF2C4C8D1FD4A7B740F6A3F871F0AA4D55DD691F1A3F0E01
310
F2B26CE364408200D5A7734668CCC7C3127FDF81400535AEE713B0EF61AD71E5FEA500DDD688212DA0582F752DBF4A8026821F033F491020FED613B25FF891CD5A38FE3FCF4E7E7F7F044927D820A00402782201A4AD41FE8FD2E301C13309280FFE25573B66F8E28FF65A601602962C59B264C9922543CB3F14B5230C5F37
310
A0130000000049454E44AE426082B63A0172D86DE1BEC99F97C26C9C0D661AEC860035E6862F46EE7E4109CA2B042C2588E5A1CBDF0E821501688D06FCC37ED0038A1F8ABACF556247F60633FE6AE6AF030284071833BF3D104066373004837E08004C29D09107D852A00B02C49DF4A612EC2708D6F83B202022570C80BA22
310
40505169C1C713201D3FAE83BA22A0DCA847859F4C800EFD5C77FEEE4C001D41406F3F1B5D10D0DF2FA717EA074CBD591D04BB2380CDF59E08A885509F0C748ADF5F1F117E528C3A35B62F0FDB6A4FFDFF4A2F012F01AF6DF40074EA0B2F01BD13F0C680B709BC04BC04BC41F0B5D75E7B75C09B0592FD015EB7AB903D4335
310
250000000049454E44AE426082EB460100919A9EA8071300A300D40BF6DD95B1AF2112CB179C7302088BECE04B8D00207EE3D7C304BC0380C100A4E2F92BBFC25F9C4B846AE9CB058129235D17008554F872004A3A79D041D09D12003DE3E3D50D112FA33DE6B5E203F06C0046EB7F3F9A1706E365003E13F800BC0740210C
310
1ACB973778A60BD848848CF00600FC1E0CA0900AEB2A40ABC5934D2015CFC9FF730C9E1C06131DF8BDC303928E106D88C0FB007837FF7B91FC5157F8B196BEB35D724D5FF61BDFF8C66DC61F34B9BB8815727F670000000049454E44AE4260829BDBCF9FFDE7B6F86BAEBEB7FD6F9F05000E1439BFEB00C66DF46FE78356D4
310
BD7FAB978ABA3FE7EBF6B3EE0B7E98F89DA6056768E3873B7C9A485E9B69F8FE1862663EBF391826400A4F368A133A60E601CE3B764F6A845F16D56B7C923398F8AD8C3E96DBF9A250F863F43F7D9E3DFC9B18DE3A00DA64CDEB6DCABAF3F7815F333EAF44F3F79ECA278D00BEE8B1B366B3AF8A4B9E38BB786EBFBE24341F
310
24D5BC2AEEBF342E391F0A0249AFF8A2D1380FDA7106D038BD7FE187F5F7F9EDFD4E3E538C6C0E15E79C6A5879507380A7759783463D1B875EAC7BC113468E83A49A2AB2BFCE01CFF42EAF81A1970600CFF62E2F4195AF0058EA4C84D92DDFE0001EF7C23370F693BA9EB2AE4CF1DEFD9663CA019C5D5BE1219CF9A55CABFC
310
BB883832C03FC263BCCEA277971BD5AFEA7AA722D5FCE0EE391611BF2343EF82DB7B8B15BC3D141CFD85A23F2C16DE7E98FF8EBFA0FBF3F5DF00FFD9961CFF01CE140027BD33610D0000000049454E44AE426082
  0
ENDSEC
  0
EOF
